Для удобства, открытия скрытых возможностей и полного функционала, советуем Зарегистрироваться или авторизоваться.
Авторизация: Логин Пароль (Забыли?)
Загрузка похожих видео и клипов с YouTube...

Не будите спящих - Кокаин, аккорды, табы, mp3
бой
gtp
видео
mp3
табы
аккорды
текст

Не будите спящих - Кокаин

Жанр/Тематика: Хип-Хоп, Рэп
 Играть желательно в 2 гитары. Бой +солоперебор.
По проигрышам и переборам по ходу песни примерно так как указано ниже втабах. 
Но можно и пофантазировать с переборами.

   == Am ==                    == F ==     == E ==
E||-----------0-------------|-----------1-----------0--|
B||----------------3--1--0--|--------1-----------0-----|
G||--------2----------------|-----2-----------1--------|
D||-----2-------------------|--3-----------2-----------|
A||--0----------------------|--------------------------|
E||-------------------------|--------------------------|
  
   -----------0-------------|-----------1--------------|
   ----------------3--1--0--|--------1-----------0-----|
   --------2----------------|-----2-----------1-----1--|
   -----2-------------------|--3-----------2-----------|
   --0----------------------|--------------------------|
   -------------------------|--------------------------|
    
------------------------0--1--|---1---0--1--------0------0-------|
-------------0---1---3--------|-----------------------4----------|
---2---1--2-------------------|-------------(2)-------------(1)--|
------------------------------|------------------(2)-------------|
--(0)-----------(0)-----------|----------------------------------|
------------------------------|--(1)-----------------------------|
           
------------------------0--1--|---1---0--1-------0-----0-------|
-------------0---1---3--------|---------------------4----------|
---2---1--2-------------------|-------------(2)-----------(1)--|
------------------------------|---3---2--3-------2--1--2-------|
--(0)-----------(0)-----------|--------------------------------|
------------------------------|--(1)---------------------------|

Am
Мальчики,девочки нюхают кокаин
  F              E
Знает ли мама твоя что ты делаешь
Am
ЛДС ,Экстази,Метадон­,героин
  F              E
Скорости разные,всё на любителя...

Запретный плод слышишь,брат,в руки не бери
Подумай о семье,подумай о здоровье...
Не нужно,брат,слышишь,­жизнь свою не губи
Не оставайся у родных не щеках солью..


Жили-были мальчики,прятали баянчики
Рома и Виталик разминали свои пальчики
Острые иголочки,прятали за полочки
Мета-чёрный героин штырил круче водочки...

Видики,брюлики,всё уходило..туда
Где небритые джамалы мутили дела
Плакали мамы и рассуждали отцы
Как же так своих детей не уберегли..

На рейдах мусора с поличной принимали
Нанося удары,показания выбивали
Но кровь не чистая бежала по рукам
Надежды убивала молодым пацанам...

Запретный плод слышишь,брат,в руки не бери
Я сотни раз им говорил но бесполезно
Не нужно,брат,слышишь,­жизнь свою не губи
И почему же вы поздно так поняли...

В койках больничных их круглыми пичкали
Чёрные вороны вскружили голову
Им....ууеее....

Мальчики,девочки нюхают кокаин
Знает ли мама твоя что ты делаешь
ЛДС ,Экстази,Метадон­,героин
Скорости разные,всё на любителя...

Запретный плод слышишь,брат,в руки не бери
Подумай о семье,подумай о здоровье...
Не нужно,брат,слышишь,­жизнь свою не губи
Не оставайся у родных на щеках солью..

Не играют мальчики и девочки в игрушки
Прячут от родителей колёса под подушкой
То нарыт, то торчит, то в лечебнице лежит
И помоему не важно о чём мама говорит

А врачи-наркологи бачут всем их голову
Делят между пацанами граммы,чеки по ровну
Мама снова слёзы льёт где же делся мой сынок
Миллионы судеб затерялись в городе дорог

Стой...слышишь,брат­,остановись...
Стой...ты терпенья наберись..
Боль...принесёт запретный плод
Ты найди свою дорогу не жалея ног

Мальчики,девочки нюхают кокаин
Знает ли мама твоя что ты делаешь
ЛДС ,Экстази,Метадон­,героин
Скорости разные,всё на любителя...

Запретный плод слышишь,брат,в руки не бери
Подумай о семье,подумай о здоровье...
Не нужно,брат,слышишь,­жизнь свою не губи
Не оставайся у родных на щеках солью..
 

Не будите спящих - Кокаин: Аккорды, текст, слова, табы, gtp, mp3, слушать, видео, скачать

На сайте функционирует система коррекции
ошибка
ибок. Обнаружив неточность в тексте, выделите её и нажмите Ctrl+Enter


Аппликатура аккордов к: Не будите спящих - Кокаин
Добавить бой Переключить апликатуру: Клавиши Гитары

Уважаемый посетитель, Вы зашли на сайт как незарегистрированный пользователь.
Мы рекомендуем Вам зарегистрироваться либо войти на сайт под своим именем.
close
Имя:*
E-Mail:
Комментарий:
Введите код: *

Update Required To play the media you will need to either update your browser to a recent version or update your Flash plugin.
Что бы добавлять песни в избранное вы должны авторизоваться на сайте!