{instrum_title}

Агеев Дмитрий - Упражнения Аккорды, Табы


 E |---------------|||--------------|||---------------|----------------|
B |---------------|||--------------|||---------------|----------------|
G |--------------o|||o------------o|||o--------------|----------------|
D |--7--7--7--7--o|||o5--6--7--8--o|||o--------------|----------------|
A |---------------|||--------------|||---------------|--5--6--7--8----|
E |---------------|||--------------|||-5--6--7--8----|----------------|


----------------|----------------|----------------|--5--6--7--8---|||
----------------|----------------|--5--6--7--8----|---------------|||
----------------|--5--6--7--8----|----------------|--------------o|||
--5--6--7--8----|----------------|----------------|--------------o|||
----------------|----------------|----------------|---------------|||
----------------|----------------|----------------|---------------|||


---------------------------|---------------------------|||
---------------------------|---------------------------|||
o5--0--7--0--8--0--7--0----|--4--0--5--0--7--0--5--0--o|||
o--------------------------|--------------------------o|||
---------------------------|---------------------------|||
---------------------------|---------------------------|||


---------------------------|----------------------------|
---------------------------|----------------------------|
o--------------------------|----------------------------|
o--------------------------|-----5-----5-----5-----5----|
----7-----7-----7-----7----|--3-----3-----3-----3-------|
-5-----5-----5-----5-------|----------------------------|


----------------------------|---------------------------|||
----------------------------|---------------------------|||
----------------------------|--------------------------o|||
----------------------------|-----7-----7-----7-----7--o|||
-----5-----5-----5-----5----|--5-----5-----5-----5------|||
--3-----3-----3-----3-------|---------------------------|||


---------------------------|----------------------------|
---------------------------|----------------------------|
o--------------------------|----------------------------|
o--------------------------|--5--5--5--5--5--5--5--5----|
-7--7--7--7--7--7--7--7----|--3--3--3--3--3--3--3--3----|
-5--5--5--5--5--5--5--5----|----------------------------|


----------------------------|---------------------------|||
----------------------------|---------------------------|||
----------------------------|--------------------------o|||
----------------------------|--7--7--7--7--7--7--7--7--o|||
--5--5--5--5--5--5--5--5----|--5--5--5--5--5--5--5--5---|||
--3--3--3--3--3--3--3--3----|---------------------------||| 
шаблоны для dle 11.2
https://guitar1st.ru/77173-uprazhneniya.html
Пожалуйста не удаляйте ссылку на источник!

Видео


Аппликатура распознанных аккордов:

Добавить комментарий

Оставить комментарий

Кликните на изображение чтобы обновить код, если он неразборчив