{instrum_title}

Alice In Chains - Brother Acoustic Аккорды, Табы


 Brother Unplugged
Alice In Chains
Moserd@mindspring.com (Joe Moser)
Tune down ? step.
Intro and verse (Rhy. 1)
Eb----0----0---0-0--0---0--0---0--0--0--0----------------------------------------|
Bb----2----2---2-2--2---2--2---2--2--2--2--3-/-5--3--2---------------------------|
Gb----0----0---0-0--0---0--0---0--0--0--0--0-/-0--0--0---------------------------|
Db----2----2---2-2--2---2--2---2--2--2--2--3-/-5--3--2---------------------------|
Ab----0----0---0-0--0---0--0---0--0--0--0--0-/-0--0--0---------------------------|
Eb-------------------------------------------------------------------------------|

Played over intro
Eb------------------------------------------------------------------------------|
Bb--------------------------------5^-----------------------------5^------8^-----|
Gb------------------------------------6^-----------------------------6^---------|
Db----------------------------5-------------------------------------------------|
Ab--------------3---5-5/7--------------------------3---5-5/7--------------------|
Eb------3---5-------------------------------3---5-------------------------------|
Eb------------------------------------------------------------------|
Bb--------------------------------5^--------------------------------|
Gb------------------------------------6^----------------------------|
Db----------------------------5-------------------------------------|
Ab--------------3---5-5/7--------------------------3---5-5/7--------|
Eb------3---5-------------------------------3---5-------------------|

Chorus
F                                                    Rhy 1
You were always so far away._____
F                                         G                                                                
1
I know that pain_____ So don't you run away like you used to do._______

Lyrics-
Frozen in the place I hide
Not afraid to paint my sky with
Some who say I've lost my mind
Brother try and hope to find
You were always so far away
I know that pain so don't you run away
Like you used to do
Roses in a vase of white
Bloodied by the thorns beside the leaves
That fall because my hand is pulling them hard as I can
You were always so far away
I know that pain and I won't run away
Like I used to do
Pictures in a box at home
Yellowing and green with mold
So I can barely see your face
Wonder how that color taste
You were always so far away
I know the way so don't you run away
Like you used to do
Like you used to do 
шаблоны для dle 11.2
https://guitar1st.ru/37066-brother-acoustic.html
Пожалуйста не удаляйте ссылку на источник!

Видео


Аппликатура распознанных аккордов:

Добавить комментарий

Оставить комментарий

Кликните на изображение чтобы обновить код, если он неразборчив