{instrum_title}

Alice In Chains - Junkhead Аккорды, Табы


 Junkhead
by Alice in Chains
Tuning: Eb, Ab, Db, Gb
This song pretty much has only two parts, verse and chorus.
Verse   x8
|-----------------------------------|
|*---------------------------------*|
|*-2----1----1---------------------*|
|---------------3---2----1----1--0--|
Chorus  x4
|--------------------------------------|
|*-------------------------3-----------|
|*-0----0--0--0--3---3--5-----5--3--0--|
|--------------------------------------|
|--------------------------------------|
|-------------------------------------*|
|-------------------------------------*|
|-3----3--3--3--1----1--1--1--1--1--1--|
And for the solo, just play the chorus again.

Sea of Sorrow
by Alice in Chains
Tuning: Eb, Ab, Db, Gb
Note: v means you can should vary the rhythm of this measure as you think 
it should sound. I play it a couple of different ways, so I just give you 
the basic.
Verse First time through
|-------------|-----------|-------------|-----------|
|*------------|-----------|-------------|----------*|
|*------------|-----------|-------------|----------*|
|--6/3--3--3--|--------3--|--1/3--3--3--|-----------|
|-------------|-----------|-------------|-----------|
|-------------|-----------|-------------|-----------|
|-------------|-----------|-------------|-----------|
|--3/1--1--1--|--------1--|--6/8--8--8--|-----------|
|-------------|-----------|-------------|-----------|
|-------------|-----------|-------------|-----------|
|-------------|-----------|-------------|-----------|
|--6/3--3--3--|--------3--|--1/3--3--3--|-333333333-|

Verse All other times
		  v                         v
|-------------|-----------|-------------|-----------|
|*------------|-----------|-------------|----------*|
|*------------|-----------|-------------|----------*|
|--6/3--3--3--|--3--3--3--|--1/3--3--3--|--3--3--3--|
                    v                         v
|-------------|-----------|-------------|-----------|
|-------------|-----------|-------------|-----------|
|-------------|-----------|-------------|-----------|
|--3/1--1--1--|--1--1--1--|--6/8--8--8--|--8--8--8--|
|-------------|-----------|-------------|-----------|
|-------------|-----------|-------------|-----------|
|-------------|-----------|-------------|-----------|
|--6/3--3--3--|--3--3--3--|--1/3--3--3--|-333333333-|
Pre-Chorus
|------------|-------------|-------------|-------------|
|*-----------|-------------|-------------|------------*|
|*-----------|-3-3-3-33333-|-------------|------------*|
|--1--1-1-1--|-------------|--6/3--3--3--|-333-333-333-|
|------------|-------------|
|------------|-------------|
|------------|-3-3-3-33333-|
|--1--1-1-1--|-------------|
|--------------------------|-----|
|--------------------------|-----|
|-000000000000000000000000-|--R--|
|--------------------------|-----|
			     ^Drum Fill
Chorus
 		    x3
|---------------------|------------------|
|*-------------------*|------------------|
|*----0-0-0----------*|-----0-0-0--------|
|-3-3-------0-00-0000-|-3-3-------0------|
That's about it....for the solo just play the chorus under it. And near 
the end speed up the rhythm of the chorus...you can hear it on the cd.

Questions, Comments, etc. email 
шаблоны для dle 11.2
https://guitar1st.ru/37083-junkhead.html
Пожалуйста не удаляйте ссылку на источник!

Видео


Аппликатура распознанных аккордов:

Добавить комментарий

Оставить комментарий

Кликните на изображение чтобы обновить код, если он неразборчив