{instrum_title}

Amorphis - Divinity Аккорды, Табы


 Riff 1
--------------------------------------------------------
--------------------------------------------------------
--------------------------------------------------------
-2-2--2-2---3-3--3-3------------------------------------
-2-2--2-2---3-3--3-3------------------------------------
-0-0--0-0---1-1--1-1------------------------------------
Riff 2 (gtr 1)
--------------------------------------------------------
--------------------------------------------------------
-2------------------------------------------------------
-2------------------------------------------------------
-0...--0-2-3--3-3-5-5-2-3-2-----------------------------
--------------------------------------------------------
(gtr 2)
--------------------------------------------------------
--------------------------------------------------------
--------------------------------------------------------
-7--7-7-7-7-7-7-7--3--3-3-3--5--5-5-5-------------------
-7--7-7-7-7-7-7-7--3--3-3-3--5--5-5-5-------------------
-5--5-5-5-5-5-5-5--1--1-1-1--3--3-3-3-------------------
Riff 3
--------------------------------------------------------
--------------------------------------------------------
-9-9-9-9-9-9-9-9-7-7-7-7-7-7-7-7-4-4-4-4-4-4-4-4-7-7----
-9-9-9-9-9-9-9-9-7-7-7-7-7-7-7-7-4-4-4-4-4-4-4-4-7-7----
-7-7-7-7-7-7-7-7-5-5-5-5-5-5-5-5-2-2-2-2-2-2-2-2-5-5...-
--------------------------------------------------------
Riff 4 (just the chords, not how many times!)
--------------------------------------------------------
--------------------------------------------------------
-7--10--12--14---7--10-12--5--7-------------------------
-7--10--12--14---7--10-12--5--7-------------------------
-5--8---10--12---5--8--10--3--5-------------------------
-------------------------------------------------------- 
шаблоны для dle 11.2
https://guitar1st.ru/37524-divinity.html
Пожалуйста не удаляйте ссылку на источник!

Видео


Аппликатура распознанных аккордов:

Добавить комментарий

Оставить комментарий

Кликните на изображение чтобы обновить код, если он неразборчив