{instrum_title}

Andrew WK - She Is Beautiful Аккорды, Табы


 NOTE: I figured out the intro from the live video when they played on 
Conan O'Brien. Why he plays it all on the d string, only awk knows.
Most of the parts are also written out from how I saw them play it on TV.
There are 3 guitars on this, I'm doing my best to have this played on one guitar.
Intro Solo
|----------------------------------|-----------------------------------|
|----------------------------------|-----------------------------------|
|----------------------------------|-----------------------------------|
|-12/-4-0-12-0-4-0-12-0-11-0-11-12-|-0h712-0-7-0-12/5-0-4-0-7-0-11-12-|
|----------------------------------|-----------------------------------|
|----------------------------------|-----------------------------------|
|-------------------------------------|--------------------------------------|
|-------------------------------------|--------------------------------------|
|-------------------------------------|--------------------------------------|
|-0-712-4-0-12-0-4-0-12-0-11-0-11-12-|-0h712-0-7-0-125-0-12-0-14-0-1612~-|
|-------------------------------------|--------------------------------------|
|-------------------------------------|--------------------------------------|
Intro
|------------------|
|------------------|
|------------------|
|-12-12---12-12-12-|
|------------------|
|------------------|
|-----------------------------------------------------|
|-----------------------------------------------------|
|-----------------------------------------------------|
|-5-5555-5-0---7-7h9-11/12--5-5555-5-0----------------|X2
|-5-5555-5-0---7-7h9-11/12--5-5555-5-0--5-4-6-5-57-5-|
|-5-5555-5-0---7-7h9-11/12--5-5555-5-0----------------|
pm  ....                      ....
|------------------------------------------------------------|
|------------------------------------------------------------|
|------------------------------------------------------------|
|-55555-0-----7-7h9-11/12-125--5-5555-5-0-------------------|
|-55555-0-0-0-7-7h9-11/12-125--5-5555-5-0-0-0-5-4-6-5-57-5-|
|-55555-0-0-0-7-7h9-11/12-125--5-5555-5-0-0-0---------------|
pm        . .                     ....     . .
|---------------------------------------------------------------|
|---------------------------------------------------------------|
|---------------------------------------------------------------|
|-5-5555-5-0-----7-7h9-11/12-125--5-5555-5-0-------------------|
|-5-5555-5-0-0-0-7-7h9-11/12-125--5-5555-5-0-0-0-5-4-6-5-57-5-|
|-5-5555-5-0-0-0-7-7h9-11/12-125--5-5555-5-0-0-0---------------|
    ....     . .                     ....     . .
Riff 1
|--------------|
|--------------|
|--------------|
|--------------|
|-0-0-0-0-0----|
|-0-0-0-0-0...-|
pm. . . . .
Riff 2 (verse)
|---------------------------------------------------------------------|
|---------------------------------------------------------------------|
|---------------------------------------------------------------------|
|---------------------------------------------------------------------|
|-11h12-00-11h12-00-11h12-00-11h12-00-7p5-55-5h7-77-7-7-7-9-5-5-------|
|-11h12-00-11h12-00-11h12-00-11h12-00-7p5-55-5h7-77-------------7-5-0-|
pm      ..       ..       ..       ..     ..     ..   
Pre-Chorus (the girls' too young...)
|-------------------------------------------|
|-------------------------------------------|
|-------------7-------7-7-7-----------------|
|-4h5-5-5-5-7-7-4h5-0-7-7-7-0-7-7-0-0-5-7-0-|
|-4h5-5-5-5-7-5-4h5-0-5-5-5-0-7-7-0-0-5-7-0-|
|-4h5-5-5-5-7---4h5-0-------0-7-7-0-0-5-7-0-|
Chorus (she is beautiful, she is beautiful.)
|-----------------------------------------|
|-----------------------------------------|
|-----------------------------------------|
|---------------------------7-5-5555-5-12-|
|---------------------4-5---7-5-5555-5-12-|
|-5-0-5-4-0-4-0-3-2-0-----0-7-5-5555-5-12-|
pm                              ....    
Riff 3 (know i'll never know ya' i look at your face) 
|------------------------------------------------------------------------
|------------------------------------------------------------------------
|------------------------------------------------------------------------
|-4h5-5-5-4h5-5-5--7-7-7-12--0-5-7-0----12-12-11-12--125-*-5------------
|-4h5-5-5-4h5-5-5--7-7-7-12--0-5-7-0----12-12-11-12--125-*-5--------5---
|-4h5-5-5-4h5-5-5--7-7-7-12--0-5-7-0----12-12-11-12--125-*-5--5-4-5---5-
                                                          ^ stop strings from ringing
----------------------------------------------|
----------------------------------------------|
----------------------------------------------|
-4h5-5-5-4h5-5-5--7-7-7-12--0-5-7-0--12-12-12-|
-4h5-5-5-4h5-5-5--7-7-7-12--0-5-7-0--12-12-12-|
-4h5-5-5-4h5-5-5--7-7-7-12--0-5-7-0--12-12-12-|
Riff 4 ( I ain't got nothing to lose..)
|--------------------------|--------------------------------|
|--------------------------|--------------------------------|
|-----------------7--------|--------------------------------|
|-0-...-5...-7...-7----5-7-|-0...-7-0-00-5...-7....-5-5-7-7-|
|-0-...-5...-7...-5...-5-7-|-0...-7-0-00-5...-7....-5-5-7-7-|
|-0-...-5...-7...------5-7-|-0...-7-0-00-5...-7....-5-5-7-7-|
Fill. (this comes in at 3:06)
|--------------|
|--------------|
|--------------|
|-7-5-555-5-12-|
|-7-5-555-5-12-|
|-7-5-555-5-12-| 
шаблоны для dle 11.2
https://guitar1st.ru/37652-she-is-beautiful.html
Пожалуйста не удаляйте ссылку на источник!

Видео


Аппликатура распознанных аккордов:

Добавить комментарий

Оставить комментарий

Кликните на изображение чтобы обновить код, если он неразборчив