{instrum_title}

Animals - Baby Let Me Take You Home Аккорды, Табы


baby let me take you home
intro
             A       E      A       D       A      E         A   G G#
-------------------------------------------------------------5-5-3-4-|
-------------------------------------------------------------5-5-3-4-|
-----------------------------------------0-------------------6-6-4-5-|
-----------------0---------------0---0-4---0-----0-----------7-7-5-6-|
-------------0-4---0-----0---0-4---0---------0-4---0-----0---7-7-5-6-|
-0-0-2-0-3-0---------0-4---0-------------------------0-4---0-5-5-3-4-|
verses
     A                    G
(1,3)baby let me take you home
  (2)baby can i dance with you (ah ahh)
  (3)baby let me be your man   (ah ahh)
D                    F
baby let me take you home
baby can i dance with you    (ah ahh)
baby let me be me man        (ah ahh)
A                   E             A            D
ill love you all my life if you can bet ill treat you right
ill do anything in this god almighty world
yes ill be your man and ill do the best i can
A                   E         A E
if youll just let me take you home
if youll just let me dance with you
i wanna be your man
solo
   E       D        E          D        E      D      A
-5-7--7-7-10--10-10-12--12-12-10--10-10-7--7-7-5--5-5-5-|
-7-9--9-9-10--10-10-12--12-12-10--10-10-9--9-9-7--7-7-5-|
-7s9--9-9s11--11-11s13--13-13s11--11-11s9--9-9s7--7-7-6-|
--------------------------------------------------------|
--------------------------------------------------------|
--------------------------------------------------------|
bridge
(spoken)
A
well when i saw you baby i couldnt ignore you and i wanted you for my girl
and when you said yeah i just coundnt care about anyone else in this world alone
you smiled at me and i could see my life planned out ahead
you took my hand and it felt so good and this is what you said
outro
D                           A
come on baby (come on baby)(its salright)
шаблоны для dle 11.2
https://guitar1st.ru/33765-baby-let-me-take-you-home.html
Пожалуйста не удаляйте ссылку на источник!

Видео


Аппликатура распознанных аккордов:

Добавить комментарий

Оставить комментарий

Кликните на изображение чтобы обновить код, если он неразборчив