{instrum_title}

April Wine - Roller Аккорды, Табы


Roller
April Wine
http://www.guitaren.dk
Guitar
E||------------------|------------------|------------------|------------------|
B||------------------|------------------|------------------|------------------|
G||------------------|------------------|------------------|------------------|
D||------------------|------------------|------------------|------------------|
A||------------------|------------------|------------------|------------------|
E||------------------|------------------|------------------|------------------|
------------------|------------------|------------------|------------------|
------------------|------------------|------------------|------------------|
------------------|------------------|------------------|------------------|
------------------|------------------|------------------|------------------|
------------------|------------------|------------------|------------------|
------------------|------------------|------------------|------------------|
------0---0----0----0-|-----0----0----0----0-|-----0----0----0----0-|
------0---0----0----0-|-----0----0----0----0-|-----0----0----0----0-|
------1---1----1----1-|-----1----1----1----1-|-----1----1----1----1-|
----------------------|----------------------|----------------------|
----------------------|----------------------|----------------------|
----------------------|----------------------|----------------------|
-----0----0----0----0-|-----0----0----0----0-|-----0----0----0----0-|
-----0----0----0----0-|-----0----0----0----0-|-----0----0----0----0-|
-----1----1----1----1-|-----1----1----1----1-|-----1----1----1----1-|
----------------------|----------------------|----------------------|
----------------------|----------------------|----------------------|
----------------------|----------------------|----------------------|
-----0----0----0----0-|-----0----0----0----0-|-----0----0----0----0-|
-----0----0----0----0-|-----0----0----0----0-|-----0----0----0----0-|
-----1----1----1----1-|-----1----1----1----1-|-----1----1----1----1-|
----------------------|----------------------|----------------------|
----------------------|----------------------|----------------------|
----------------------|----------------------|----------------------|
-----0----0----0----0-|-----0----0----0----0-|-----0----0----0----0-|
-----0----0----0----0-|-----0----0----0----0-|-----0----0----0----0-|
-----1----1----1----1-|-----1----1----1----1-|-----1----1----1----1-|
----------------------|----------------------|----------------------|
----------------------|----------------------|----------------------|
----------------------|----------------------|----------------------|
--0---0----0----0----0-|-----0----0----0----0-|-----0----0----0----0-|
--0---0----0----0----0-|-----0----0----0----0-|-----0----0----0----0-|
--1---1----1----1----1-|-----1----1----1----1-|-----1----1----1----1-|
-----------------------|----------------------|----------------------|
-----------------------|----------------------|----------------------|
-----------------------|----------------------|----------------------|
-----0----0----0----0-|-----0----0----0----0-|-----0----0----0----0-|
-----0----0----0----0-|-----0----0----0----0-|-----0----0----0----0-|
-----1----1----1----1-|-----1----1----1----1-|-----1----1----1----1-|
----------------------|----------------------|----------------------|
----------------------|----------------------|----------------------|
----------------------|----------------------|----------------------|
-----0----0----0----0-|-----0-------------------|------0----0----0----0-|
-----0----0----0----0-|-----0-3-3-3-3-3-3-2-2-2-|--2-2-0----0----0----0-|
-----1----1----1----1-|-----1-2-2-2-2-2-2-2-2-2-|--2-2-1----1----1----1-|
----------------------|-------4-4-4-4-4-4-2-2-2-|--2-2------------------|
----------------------|-------------------------|-----------------------|
----------------------|-------------------------|-----------------------|
-----0----0----0----0-|-----0----0----0----0-|-----0----0----0----0-|
-----0----0----0----0-|-----0----0----0----0-|-----0----0----0----0-|
-----1----1----1----1-|-----1----1----1----1-|-----1----1----1----1-|
----------------------|----------------------|----------------------|
----------------------|----------------------|----------------------|
----------------------|----------------------|----------------------|
-----0----0----0----0-|-----0----0----0----0-|-----0----0----0----0-|
-----0----0----0----0-|-----0----0----0----0-|-----0----0----0----0-|
-----1----1----1----1-|-----1----1----1----1-|-----1----1----1----1-|
----------------------|----------------------|----------------------|
----------------------|----------------------|----------------------|
----------------------|----------------------|----------------------|
-----0----0----0----0-|-----0----0----0----0-|-----0----0----0----0-|
-----0----0----0----0-|-----0----0----0----0-|-----0----0----0----0-|
-----1----1----1----1-|-----1----1----1----1-|-----1----1----1----1-|
----------------------|----------------------|----------------------|
----------------------|----------------------|----------------------|
----------------------|----------------------|----------------------|
-----0-------------|------------------|-----0----0----0----0-|
-----0-------------|------------------|-----0----0----0----0-|
-----1-------------|------------------|-----1----1----1----1-|
-------------------|------------------|----------------------|
-------------------|------------------|----------------------|
-------------------|------------------|----------------------|
-----0-----------0---0-|-----0----0----0----0-|-----0----0----0----0-|
-----0-3----2----0---0-|-----0----0----0----0-|-----0----0----0----0-|
-----1-2----2----1---1-|-----1----1----1----1-|-----1----1----1----1-|
-------4----2----------|----------------------|----------------------|
-----------------------|----------------------|----------------------|
-----------------------|----------------------|----------------------|
-----0----0----0----0-|-----0-----------0---0-|-----0----0----0----0-|
-----0----0----0----0-|-----0-3----2----0---0-|-----0----0----0----0-|
-----1----1----1----1-|-----1-2----2----1---1-|-----1----1----1----1-|
----------------------|-------4----2----------|----------------------|
----------------------|-----------------------|----------------------|
----------------------|-----------------------|----------------------|
-----0-------------------|--------0------------|------------------|
-----0-3-3-3-3-3-3-2-2-2-|--2-2-2--------------|------------------|
-----1-2-2-2-2-2-2-2-2-2-|--2-2-2--------------|------------------|
-------4-4-4-4-4-4-2-2-2-|--2-2-2--------------|------------------|
-------------------------|---------------------|------------------|
-------------------------|---------------------|------------------|
------------------|------------------|------------------|------------------|
------------------|------------------|------------------|------------------|
------------------|------------------|------------------|------------------|
------------------|------------------|------------------|------------------|
------------------|------------------|------------------|------------------|
------------------|------------------|------------------|------------------|
------0------------|------------------|------0---0----0----0-|
------0------------|------------------|------0---0----0----0-|
------1------------|------------------|------1---1----1----1-|
-------------------|------------------|----------------------|
-------------------|------------------|----------------------|
-------------------|------------------|----------------------|
-----0----0----0----0-|-----0----0----0----0-|-----0----0----0----0-|
-----0----0----0----0-|-----0----0----0----0-|-----0----0----0----0-|
-----1----1----1----1-|-----1----1----1----1-|-----1----1----1----1-|
----------------------|----------------------|----------------------|
----------------------|----------------------|----------------------|
----------------------|----------------------|----------------------|
-----0----0----0----0-|-----0----0----0----0-|-----0-------------|
-----0----0----0----0-|-----0----0----0----0-|-----0-------------|
-----1----1----1----1-|-----1----1----1----1-|-----1-------------|
----------------------|----------------------|-------------------|
----------------------|----------------------|-------------------|
----------------------|----------------------|-------------------|
------------------|--4--------0----0----0-|-----0-----------0---0-|
------------------|--5--------0----0----0-|-----0-3----2----0---0-|
------------------|--4-------------1----1-|-----1-2----2----1---1-|
------------------|-------6---6-----------|-------4----2----------|
------------------|-----------------------|-----------------------|
------------------|-----------------------|-----------------------|
-----0----0----0----0-|-----0----0----0----0-|-----0----0----0----0-|
-----0----0----0----0-|-----0----0----0----0-|-----0----0----0----0-|
-----1----1----1----1-|-----1----1----1----1-|-----1----1----1----1-|
----------------------|----------------------|----------------------|
----------------------|----------------------|----------------------|
----------------------|----------------------|----------------------|
-----0-----------0---0-|-----0----0----0----0-|-----0-------------------|
-----0-3----2----0---0-|-----0----0----0----0-|-----0-3-3-3-3-3-3-2-2-2-|
-----1-2----2----1---1-|-----1----1----1----1-|-----1-2-2-2-2-2-2-2-2-2-|
-------4----2----------|----------------------|-------4-4-4-4-4-4-2-2-2-|
-----------------------|----------------------|-------------------------|
-----------------------|----------------------|-------------------------|
--------0---0----0----0-|-----0-------------------|--------0---0----0----0-|
--2-2-2-0---0----0----0-|-----0-3-3-3-3-3-3-2-2-2-|--2-2-2-0---0----0----0-|
--2-2-2-1---1----1----1-|-----1-2-2-2-2-2-2-2-2-2-|--2-2-2-1---1----1----1-|
--2-2-2-----------------|-------4-4-4-4-4-4-2-2-2-|--2-2-2-----------------|
------------------------|-------------------------|------------------------|
------------------------|-------------------------|------------------------|
-----0-------------------|--------0---0----0----0-|-----0--------------------|
-----0-3-3-3-3-3-3-2-2-2-|--2-2-2-0---0----0----0-|-----0-3---3----3---2---2-|
-----1-2-2-2-2-2-2-2-2-2-|--2-2-2-1---1----1----1-|-----1-2---2----2---2---2-|
-------4-4-4-4-4-4-2-2-2-|--2-2-2-----------------|-------4---4----4---2---2-|
-------------------------|------------------------|--------------------------|
-------------------------|------------------------|--------------------------|
--------0------------|-------------------------|--------0------------|
----2---0------------|------3---3----3---2---2-|----2---0------------|
----2---1------------|------2---2----2---2---2-|----2---1------------|
----2----------------|------4---4----4---2---2-|----2----------------|
---------------------|-------------------------|---------------------|
---------------------|-------------------------|---------------------|
------0------------||
------0------------||
------1------------||
-------------------||
-------------------||
-------------------||

http://www.guitaren.dk
шаблоны для dle 11.2
https://guitar1st.ru/33727-roller.html
Пожалуйста не удаляйте ссылку на источник!

Видео


Аппликатура распознанных аккордов:

Добавить комментарий

Оставить комментарий

Кликните на изображение чтобы обновить код, если он неразборчив