{instrum_title}

Ареал - Воин света Аккорды, Табы


 Куплет #1:

Снова... в бой !
Время не ждёт, только вперёд !
Воин света, снова готов повергнуть врагов...

Только в бою - ты бог и король,
А за душою нет ничего, лишь боль...

Припев:

Нет больше слёз в твоих глазах,
В них только бездна и тьма.
Оружием смерти ты стал на земле,
Так что борись до конца !

Воин света,
Ты не помнишь любви, не имеешь мечты...
Боль ! Злость,
Последний удел, средь мёрвых тел.

Только в бою - ты бог и король,
А на душе нет ничего, лишь боль...

Припев #2

Нет больше слёз в твоих глазах...

Припев #3

Нет больше слёз в твоих глазах,
В них только бездна и тьма.
Оружием смерти ты стал на земле,
Так что борись до конца !

Нет больше жизни, в сердце твоём...
Холодный и призрачный свет.
Прожита жизнь ради глупой войны,
Ради минутных побед.

E |----------------------------------------|
B |----------------------------------------|
G |----------------------------------------|
D |--12h0--14h0--15h0--17h0--15h0--14h0----|
A |----------------------------------------|
E |----------------------------------------|

                                         
----------------------------------------|
----------------------------------------|
----------------------------------------|
--20h0--19h0--17h0--15h0--14h0--10h0----|
----------------------------------------|
----------------------------------------|

                                         
----------------------------------------|
----------------------------------------|
----------------------------------------|
--8h-0--12h0--17h0--15h0--14h0--12h0----|
----------------------------------------|
----------------------------------------|

                                                     
----------------------------------------------------|
----------------------------------------------------|
----------------------------------------------------|
--12----------------14-12-11~-----------------------|
----------------------------------------------------|
----------------------------------------------------|

                                         
----------------------------------------|
----------------------------------------|
----------------------------------------|
--12h0--14h0--15h0--17h0--15h0--14h0----|
----------------------------------------|
----------------------------------------|

                                         
----------------------------------------|
----------------------------------------|
----------------------------------------|
--20h0--19h0--17h0--15h0--14h0--10h0----|
----------------------------------------|
----------------------------------------|

                                         
----------------------------------------|
----------------------------------------|
----------------------------------------|
--8h-0--12h0--17h0--15h0--14h0--12h0----|
----------------------------------------|
----------------------------------------|

                                                     
----------------------------------------------------|
----------------------------------------------------|
----------------------------------------------------|
--12----------------14-12-11~-----------------------|
----------------------------------------------------|
----------------------------------------------------|

                                         
----------------------------------------|
----------------------------------------|
----------------------------------------|
--12h0--14h0--15h0--17h0--15h0--14h0----|
----------------------------------------|
----------------------------------------|

                                         
----------------------------------------|
----------------------------------------|
----------------------------------------|
--20h0--19h0--17h0--15h0--14h0--10h0----|
----------------------------------------|
----------------------------------------|

                                         
----------------------------------------|
----------------------------------------|
----------------------------------------|
--8h-0--12h0--17h0--15h0--14h0--12h0----|
----------------------------------------|
----------------------------------------|

                                                     
----------------------------------------------------|
----------------------------------------------------|
----------------------------------------------------|
--12----------------14-12-11~-----------------------|
----------------------------------------------------|
----------------------------------------------------|

                                         
----------------------------------------|
----------------------------------------|
----------------------------------------|
--12h0--14h0--15h0--17h0--15h0--14h0----|
----------------------------------------|
----------------------------------------|

                                         
----------------------------------------|
----------------------------------------|
----------------------------------------|
--20h0--19h0--17h0--15h0--14h0--10h0----|
----------------------------------------|
----------------------------------------|

                                         
----------------------------------------|
----------------------------------------|
----------------------------------------|
--8h-0--12h0--17h0--15h0--14h0--12h0----|
----------------------------------------|
----------------------------------------|

                                                     
----------------------------------------------------|
----------------------------------------------------|
----------------------------------------------------|
--12----------------14-12-11~-----------------------|
----------------------------------------------------|
----------------------------------------------------|

                                                     
----------------------------------------------------|
----------------------------------------------------|
----------------------------------------------------|
--12M10M8M----8M------------------------------------|
-----------12M---12M10M8M-12M10M8M-7M-10M8M-7M-5M---|
----------------------------------------------------|

                                                                                
--------------------------------------------------------------------------------
--------------------------------------------------------------------------------
--------------------------------------------------------------------------------
--------------------------------------------------------------------------------
--8M-------7M-------5M-------4M-------7M-------5M-------4M----------------------
-----------------------------------------------------------------6M-------3M----

                                                                             
--------------------------------------------------------------------|-------|
--------------------------------------------------------------------|-------|
--------------------------------------------------------------------|-------|
------------------------------------------------5M----7M----8M------|--12~--|
------------4M----5M----7M----4M----5M----7M------------------------|-------|
5M----6M------------------------------------------------------------|-------|

                                         
----------------------------------------|
----------------------------------------|
----------------------------------------|
--7--7--7--7----------------------------|
--5--5--5--5----------------------------|
--5--5--5--5----------------------------|

                                         
----------------------------------------|
----------------------------------------|
----------------------------------------|
--7--7--7--7----------------------------|
--5--5--5--5----------------------------|
--5--5--5--5----------------------------|

                                         
----------------------------------------|
----------------------------------------|
----------------------------------------|
--3--3--3--3----------------------------|
--1--1--1--1----------------------------|
--1--1--1--1----------------------------|

                                         
----------------------------------------|
----------------------------------------|
----------------------------------------|
--5--5--5--5-----------------5M-7M-8M---|
--3--3--3--3--------4M-5M-7M------------|
--3--3--3--3----------------------------|

                                         
----------------------------------------|
----------------------------------------|
----------------------------------------|
--7--7--7--7----------------------------|
--5--5--5--5----------------------------|
--5--5--5--5----------------------------|

                                         
----------------------------------------|
----------------------------------------|
----------------------------------------|
--7--7--7--7----------------------------|
--5--5--5--5----------------------------|
--5--5--5--5----------------------------|

                                         
----------------------------------------|
----------------------------------------|
----------------------------------------|
--3--3--3--3----------------------------|
--1--1--1--1----------------------------|
--1--1--1--1----------------------------|

                                         
----------------------------------------|
----------------------------------------|
----------------------------------------|
--5--5--5--5-----------------5M-7M-8M---|
--3--3--3--3--------4M-5M-7M------------|
--3--3--3--3----------------------------|

                                                     
----------------------------------------------------|
----------------------------------------------------|
----------------------------------------------------|
--------------------------10M8M-7M----------7M-8M---|
--8M-8M-8M-8M-8M-8M-8M-8M----------10M8M-10M--------|
----------------------------------------------------|

                                                                                
--------------------------------------------------------------------------------
--------------------------------------------------------------------------------
--------------------------------------------------------------------------------
--------------------------------------------------------------------------------
--7M-------7M-------7M-------7M-------7M-------7M-------7M-------7M-------5M----
--------------------------------------------------------------------------------

                                                                     
--------------------------------------------------------------------|
--------------------------------------------------------------------|
--------------------------------------------------------------------|
------------5M----7M----8M----------------------7M----8M----10M-----|
7M----8M----------------------7M----8M----10M-----------------------|
--------------------------------------------------------------------|

                                                     
----------------------------------------------------|
----------------------------------------------------|
--------------------------12M10M9M-7M---------------|
--------------------------------------12M10M8M-10M--|
--8M-8M-8M-8M-8M-8M-8M-8M---------------------------|
----------------------------------------------------|

                                                     
----------------------------------------------------|
----------------------------------------------------|
----------------------------------------------------|
-----------------5M-7M-8M-8M-8M-8M-8M-8M-8M-8M-8M---|
--------5M-7M-8M------------------------------------|
--6M-8M---------------------------------------------|

                                                     
----------------------------------------------------|
----------------------------------------------------|
----------------------------------------------------|
--15M------14M------12M---15M------14M------12M-----|
-----13M13M---13M13M---13M---13M13M---13M13M---13M--|
----------------------------------------------------|

                                                     
----------------------------------------------------|
----------------------------------------------------|
----------------------------------------------------|
--17M------15M------14M---17M------15M------14M-----|
-----15M15M---15M15M---15M---15M15M---15M15M---15M--|
----------------------------------------------------|

                                                     
----------------------------------------------------|
----------------------------------------------------|
----------------------------------------------------|
--3-----x--x--2-----3-----x--x--2-----3-------------|
--------x--x--------------x--x----------------------|
--------x--x--------------x--x----------------------|

                                                     
----------------------------------------------------|
----------------------------------------------------|
----------------------------------------------------|
--8M-7M-5M----5M------------------------------------|
-----------8M----8M-7M-5M-7M-5M-4M----4M------------|
-----------------------------------6M----6M-5M-3M---|

                                         
----------------------------------------|
----------------------------------------|
----------------------------------------|
--12h0--14h0--15h0--17h0--15h0--14h0----|
----------------------------------------|
----------------------------------------|

                                         
----------------------------------------|
----------------------------------------|
----------------------------------------|
--20h0--19h0--17h0--15h0--14h0--10h0----|
----------------------------------------|
----------------------------------------|

                                         
----------------------------------------|
----------------------------------------|
----------------------------------------|
--8h-0--12h0--17h0--15h0--14h0--12h0----|
----------------------------------------|
----------------------------------------|

                                                     
----------------------------------------------------|
----------------------------------------------------|
----------------------------------------------------|
--12----------------14-12-11~-----------------------|
----------------------------------------------------|
----------------------------------------------------|

                                         
----------------------------------------|
----------------------------------------|
----------------------------------------|
--12h0--14h0--15h0--17h0--15h0--14h0----|
----------------------------------------|
----------------------------------------|

                                         
----------------------------------------|
----------------------------------------|
----------------------------------------|
--20h0--19h0--17h0--15h0--14h0--10h0----|
----------------------------------------|
----------------------------------------|

                                         
----------------------------------------|
----------------------------------------|
----------------------------------------|
--8h-0--12h0--17h0--15h0--14h0--12h0----|
----------------------------------------|
----------------------------------------|

                                                     
----------------------------------------------------|
----------------------------------------------------|
----------------------------------------------------|
--12----------------14-12-11~-----------------------|
----------------------------------------------------|
----------------------------------------------------|

                                                     
----------------------------------------------------|
----------------------------------------------------|
----------------------------------------------------|
--12M10M8M----8M------------------------------------|
-----------12M---12M10M8M-12M10M8M-7M-10M8M-7M-5M---|
----------------------------------------------------|

                                                                                
--------------------------------------------------------------------------------
--------------------------------------------------------------------------------
--------------------------------------------------------------------------------
--------------------------------------------------------------------------------
--8M-------7M-------5M-------4M-------7M-------5M-------4M----------------------
-----------------------------------------------------------------6M-------3M----

                                                                             
--------------------------------------------------------------------|-------|
--------------------------------------------------------------------|-------|
--------------------------------------------------------------------|-------|
------------------------------------------------5M----7M----8M------|--12~--|
------------4M----5M----7M----4M----5M----7M------------------------|-------|
5M----6M------------------------------------------------------------|-------|

                                         
----------------------------------------|
----------------------------------------|
----------------------------------------|
--7--7--7--7--------7M-5M-3M-7M-5M-3M---|
--5--5--5--5----------------------------|
--5--5--5--5----------------------------|

                                         
----------------------------------------|
----------------------------------------|
--------------------7M-5M-3M----3M------|
--7--7--7--7-----------------7M----5M---|
--5--5--5--5----------------------------|
--5--5--5--5----------------------------|

                                         
----------------------------------------|
----------------------------------------|
----------------------------------------|
--3--3--3--3--------7M-5M-3M-7M-5M-3M---|
--1--1--1--1----------------------------|
--1--1--1--1----------------------------|

                                         
----------------------------------------|
----------------------------------------|
----------------------------------------|
--5--5--5--5-----------------5M-7M-8M---|
--3--3--3--3--------4M-5M-7M------------|
--3--3--3--3----------------------------|

                                         
----------------------------------------|
----------------------------------------|
----------------------------------------|
--7--7--7--7--------7M-5M-3M-7M-5M-3M---|
--5--5--5--5----------------------------|
--5--5--5--5----------------------------|

                                         
----------------------------------------|
----------------------------------------|
--------------------7M-5M-3M----3M------|
--7--7--7--7-----------------7M----5M---|
--5--5--5--5----------------------------|
--5--5--5--5----------------------------|

                                         
----------------------------------------|
----------------------------------------|
----------------------------------------|
--3--3--3--3--------7M-5M-3M-7M-5M-3M---|
--1--1--1--1----------------------------|
--1--1--1--1----------------------------|

                                         
----------------------------------------|
----------------------------------------|
----------------------------------------|
--5--5--5--5-----------------5M-7M-8M---|
--3--3--3--3--------4M-5M-7M------------|
--3--3--3--3----------------------------|

                                                     
----------------------------------------------------|
----------------------------------------------------|
----------------------------------------------------|
--------------------------10M8M-7M----------7M-8M---|
--8M-8M-8M-8M-8M-8M-8M-8M----------10M8M-10M--------|
----------------------------------------------------|

                                                                                
--------------------------------------------------------------------------------
--------------------------------------------------------------------------------
--------------------------------------------------------------------------------
--------------------------------------------------------------------------------
--7M-------7M-------7M-------7M-------7M-------7M-------7M-------7M-------5M----
--------------------------------------------------------------------------------

                                                                     
--------------------------------------------------------------------|
--------------------------------------------------------------------|
--------------------------------------------------------------------|
------------5M----7M----8M----------------------7M----8M----10M-----|
7M----8M----------------------7M----8M----10M-----------------------|
--------------------------------------------------------------------|

                                                     
----------------------------------------------------|
----------------------------------------------------|
--------------------------12M10M9M-7M---------------|
--------------------------------------12M10M8M-10M--|
--8M-8M-8M-8M-8M-8M-8M-8M---------------------------|
----------------------------------------------------|

                                                     
----------------------------------------------------|
----------------------------------------------------|
----------------------------------------------------|
-----------------5M-7M-8M-8M-8M-8M-8M-8M-8M-8M-8M---|
--------5M-7M-8M------------------------------------|
--6M-8M---------------------------------------------|

                                                     
----------------------------------------------------|
----------------------------------------------------|
----------------------------------------------------|
--15-------14-------12----15-------14-------12------|
-----13-13----13-13----13----13-13----13-13----13---|
----------------------------------------------------|

                                                     
----------------------------------------------------|
----------------------------------------------------|
----------------------------------------------------|
--17-------15-------14----17-------15-------14------|
-----15-15----15-15----15----15-15----15-15----15---|
----------------------------------------------------|

                                                     
----------------------------------------------------|
----------------------------------------------------|
----------------------------------------------------|
--7-----x--x--5-----7-----x--x--5-----7-------------|
--5-----x--x--3-----5-----x--x--5-----5-------------|
--5-----x--x--3-----5-----x--x--3-----5-------------|

                                                     
----------------------------------------------------|
----------------------------------------------------|
----------------------------------------------------|
--8M-7M-5M----5M------------------------------------|
-----------8M----8M-7M-5M-7M-5M-4M----4M------------|
-----------------------------------6M----6M-5M-3M---|

                                         
----------------------------------------|
----------------------------------------|
----------------------------------------|
--12h0--14h0--15h0--17h0--15h0--14h0----|
----------------------------------------|
----------------------------------------|

                                         
----------------------------------------|
----------------------------------------|
----------------------------------------|
--20h0--19h0--17h0--15h0--14h0--10h0----|
----------------------------------------|
----------------------------------------|

                                         
----------------------------------------|
----------------------------------------|
----------------------------------------|
--8h-0--12h0--17h0--15h0--14h0--12h0----|
----------------------------------------|
----------------------------------------|

                                                     
----------------------------------------------------|
----------------------------------------------------|
----------------------------------------------------|
--12----------------14-12-11~-----------------------|
----------------------------------------------------|
----------------------------------------------------|

                                         
----------------------------------------|
----------------------------------------|
----------------------------------------|
--12h0--14h0--15h0--17h0--15h0--14h0----|
----------------------------------------|
----------------------------------------|

                                         
----------------------------------------|
----------------------------------------|
----------------------------------------|
--20h0--19h0--17h0--15h0--14h0--10h0----|
----------------------------------------|
----------------------------------------|

                                         
----------------------------------------|
----------------------------------------|
----------------------------------------|
--8h-0--12h0--17h0--15h0--14h0--12h0----|
----------------------------------------|
----------------------------------------|

                                                             
----------------------------------------------------|-------|
----------------------------------------------------|-------|
----------------------------------------------------|-------|
--12----------------14-12-11~-----------------------|--12~--|
----------------------------------------------------|-------|
----------------------------------------------------|-------|

                                         
----------------------------------------|
----------------------------------------|
----------------------------------------|
--12h0--14h0--15h0--17h0--15h0--14h0----|
----------------------------------------|
----------------------------------------|

                                         
----------------------------------------|
----------------------------------------|
----------------------------------------|
--20h0--19h0--17h0--15h0--14h0--10h0----|
----------------------------------------|
----------------------------------------|

                                         
----------------------------------------|
----------------------------------------|
----------------------------------------|
--8h-0--12h0--17h0--15h0--14h0--12h0----|
----------------------------------------|
----------------------------------------|

                                                     
----------------------------------------------------|
----------------------------------------------------|
----------------------------------------------------|
--12----------------14-12-11~-----------------------|
----------------------------------------------------|
----------------------------------------------------|

                                         
----------------------------------------|
----------------------------------------|
----------------------------------------|
--12h0--14h0--15h0--17h0--15h0--14h0----|
----------------------------------------|
----------------------------------------|

                                         
----------------------------------------|
----------------------------------------|
----------------------------------------|
--20h0--19h0--17h0--15h0--14h0--10h0----|
----------------------------------------|
----------------------------------------|

                                         
----------------------------------------|
----------------------------------------|
----------------------------------------|
--8h-0--12h0--17h0--15h0--14h0--12h0----|
----------------------------------------|
----------------------------------------|

                                                     
----------------------------------------------------|
----------------------------------------------------|
----------------------------------------------------|
--12----------------14-12-11~-----------------------|
----------------------------------------------------|
----------------------------------------------------|

                                         
----------------------------------------|
----------------------------------------|
----------------------------------------|
--12h0--14h0--15h0--17h0--15h0--14h0----|
----------------------------------------|
----------------------------------------|

                                         
----------------------------------------|
----------------------------------------|
----------------------------------------|
--20h0--19h0--17h0--15h0--14h0--10h0----|
----------------------------------------|
----------------------------------------|

                                         
----------------------------------------|
----------------------------------------|
----------------------------------------|
--8h-0--12h0--17h0--15h0--14h0--12h0----|
----------------------------------------|
----------------------------------------|

                                                     
----------------------------------------------------|
----------------------------------------------------|
----------------------------------------------------|
--12----------------14-12-11~-----------------------|
----------------------------------------------------|
----------------------------------------------------|

                                         
----------------------------------------|
----------------------------------------|
----------------------------------------|
--12h0--14h0--15h0--17h0--15h0--14h0----|
----------------------------------------|
----------------------------------------|

                                         
----------------------------------------|
----------------------------------------|
----------------------------------------|
--20h0--19h0--17h0--15h0--14h0--10h0----|
----------------------------------------|
----------------------------------------|

                                         
----------------------------------------|
----------------------------------------|
----------------------------------------|
--8h-0--12h0--17h0--15h0--14h0--12h0----|
----------------------------------------|
----------------------------------------|

                                                     
----------------------------------------------------|
----------------------------------------------------|
----------------------------------------------------|
--12----------------14-12-11~-----------------------|
----------------------------------------------------|
----------------------------------------------------|

                                                                           
----------------------------------------------------||---------|----------|
----------------------------------------------------||---------|----------|
----------------------------------------------------||o--------|----------|
--12----------------14-12-19~-----------------------||o--------|----------|
----------------------------------------------------||---------|----------|
----------------------------------------------------||---------|----------|

                                                               
----------|---------|||---------------------------------------|
----------|---------|||---------------------------------------|
----------|--------o|||o--------------------------------------|
----------|--------o|||o12L12-14L14-15L15-17L17-15L15-14L14---|
----------|---------|||---------------------------------------|
----------|---------|||---------------------------------------|

                                                     
----------------------------------------------------|
----------------------------------------------------|
----------------------------------------------------|
--14----------------15-14-12~-----------------------|
----------------------------------------------------|
----------------------------------------------------|

                                         
----------------------------------------|
----------------------------------------|
----------------------------------------|
--8L-8--12L12-17L17-15L15-14L14-12L12---|
----------------------------------------|
----------------------------------------|

                                                     
---------------------------------------------------||
---------------------------------------------------||
--------------------------------------------------o||
--12----------------14-12-11~---------------------o||
---------------------------------------------------||
---------------------------------------------------||

                                                          
----------------------------|----------------------------|
----------------------------|----------------------------|
-----------9--10----9-------|--9--10L10-10L10------------|
--12-10-0L-0L-0L----0--10---|--10-12L12-12L12------------|
----------------------------|----------------------------|
----------------------------|----------------------------|

                             
----------------------------|
----------------------------|
--14----14-15-17-15-14------|
-----15----------------15---|
----------------------------|
----------------------------|

                                                     
----------------------------------------------------|
----------------------------------------------------|
----------------------------------------------------|
--15----------------17-15-14------------------------|
----------------------------------------------------|
----------------------------------------------------|

                                                          
----------------------------|----------------------------|
----------------------------|----------------------------|
-----------------14-17------|--9--10L10-10L10------------|
--10----10-12-14------------|--10-12L12-12L12------------|
-----12---------------------|----------------------------|
----------------------------|----------------------------|

                                         
----------------------------------------|
----------------------------------------|
-----------10-12-14-17-15-14------------|
--10-12-14-------------------17-15-14---|
----------------------------------------|
----------------------------------------|

                                                     
----------------------------------------------------|
----------------------------------------------------|
----------------------------------------------------|
--15----------------17-15-14------------------------|
----------------------------------------------------|
----------------------------------------------------|

                                         
----------------------------------------|
----------------------------------------|
--19b------------------------12-14-15---|
--19b---------------12-14-15------------|
----------------------------------------|
----------------------------------------|

                    W
----------------------------------------|
----------------------------------------|
--19----17----15----19------------------|
-----19----17----15---------------------|
----------------------------------------|
----------------------------------------|


--------------------------------------------------------------------------------
--------------------------------------------------------------------------------
--------------------------------------------------------9--------10-------19----
-----------------------------8--------10-------12-------------------------------
--8--------10-------12----------------------------------------------------------
--------------------------------------------------------------------------------


--------------------------------------------------------------------|
--------------------------------------------------------------------|
17----15----------------------17----15----14------------------------|
------------19----17----15----------------------17----15----14------|
--------------------------------------------------------------------|
--------------------------------------------------------------------|


----------------------------------------------------|
----------------------------------------------------|
--9--------10-------12----19~---------21~-----------|
-----10-10----10-10----10---------------------------|
----------------------------------------------------|
----------------------------------------------------|


----------------------------------------|
----------------------------------------|
--21h17----21h17-------------15-17-21---|
--------19-------19-15-17-19------------|
----------------------------------------|
----------------------------------------|


----------------------------------------|
----------------------------------------|
--22h19----22h19----24-22-21------------|
--------19-------19----------24-22-20---|
----------------------------------------|
----------------------------------------|


----------------------------------------------------|
----------------------------------------------------|
--21-22-19-22-17-22-21-22-19-22-17-22---------------|
--------------------------------------17~-----------|
----------------------------------------------------|
----------------------------------------------------|


--------------------------------------15h8h-12-12h8h-12---------------------|
-----------------------------13h5h-8--------------------13h5h-8-------------|
--------------------12h5h-9--------------------------------------12h5h-9----|
-----------10h2h-5----------------------------------------------------------|
--10h3h-7-------------------------------------------------------------------|
----------------------------------------------------------------------------|


----------------------------------------|
----------------------------------------|
----------------------------------------|
--12h0--14h0--15h0--17h0--15h0--14h0----|
----------------------------------------|
----------------------------------------|


----------------------------------------|
----------------------------------------|
----------------------------------------|
--20h0--19h0--17h0--15h0--14h0--10h0----|
----------------------------------------|
----------------------------------------|


----------------------------------------|
----------------------------------------|
----------------------------------------|
--8h-0--12h0--17h0--15h0--14h0--12h0----|
----------------------------------------|
----------------------------------------|


----------------------------------------------------|
----------------------------------------------------|
----------------------------------------------------|
--12----------------14-12-11~-----------------------|
----------------------------------------------------|
----------------------------------------------------|


----------------------------------------|
----------------------------------------|
----------------------------------------|
--12h0--14h0--15h0--17h0--15h0--14h0----|
----------------------------------------|
----------------------------------------|


----------------------------------------|
----------------------------------------|
----------------------------------------|
--20h0--19h0--17h0--15h0--14h0--10h0----|
----------------------------------------|
----------------------------------------|


----------------------------------------|
----------------------------------------|
----------------------------------------|
--8h-0--12h0--17h0--15h0--14h0--12h0----|
----------------------------------------|
----------------------------------------|


----------------------------------------------------|
----------------------------------------------------|
----------------------------------------------------|
--12----------------14-12-11~-----------------------|
----------------------------------------------------|
----------------------------------------------------|


--------------------------------------------------------------------------------
--------------------------------------------------------------------------------
--------------------------------------------------------------------------------
--------------------------------------------------------------------------------
--8--------7--------5--------4--------7--------5--------4-----------------------
-----------------------------------------------------------------6--------3-----


--------------------------------------------------------------------|
--------------------------------------------------------------------|
--------------------------------------------------------------------|
------------------------------------------------5-----7-----8-------|
------------4-----5-----7-----4-----5-----7-------------------------|
5-----6-------------------------------------------------------------|


----------------------------------------|
----------------------------------------|
----------------------------------------|
--12h0--14h0--15h0--17h0--15h0--14h0----|
----------------------------------------|
----------------------------------------|


----------------------------------------|
----------------------------------------|
----------------------------------------|
--20h0--19h0--17h0--15h0--14h0--10h0----|
----------------------------------------|
----------------------------------------|


----------------------------------------|
----------------------------------------|
----------------------------------------|
--8h-0--12h0--17h0--15h0--14h0--12h0----|
----------------------------------------|
----------------------------------------|


----------------------------------------------------|
----------------------------------------------------|
----------------------------------------------------|
--12----------------14-12-11~-----------------------|
----------------------------------------------------|
----------------------------------------------------|


----------------------------------------|
----------------------------------------|
----------------------------------------|
--12h0--14h0--15h0--17h0--15h0--14h0----|
----------------------------------------|
----------------------------------------|


----------------------------------------|
----------------------------------------|
----------------------------------------|
--20h0--19h0--17h0--15h0--14h0--10h0----|
----------------------------------------|
----------------------------------------|


----------------------------------------|
----------------------------------------|
----------------------------------------|
--8h-0--12h0--17h0--15h0--14h0--12h0----|
----------------------------------------|
----------------------------------------|


----------------------------------------------------||
----------------------------------------------------||
----------------------------------------------------||
--12----------------14-12-11~-----------------------||
----------------------------------------------------||
----------------------------------------------------|| 
шаблоны для dle 11.2
https://guitar1st.ru/77183-voin-sveta.html
Пожалуйста не удаляйте ссылку на источник!

Видео


Аппликатура распознанных аккордов:

Добавить комментарий

Оставить комментарий

Кликните на изображение чтобы обновить код, если он неразборчив