{instrum_title}

Blind Guardian - A Dark Passage Аккорды, Табы


Blind Guardian - A Dark Passage
Tune Down
F#||-------------------------------|-------------------------------|
C#||-------------------------------|-------------------------------|
G#||-------------------------------|-------------------------------|
D#||--0----0--0--0----0------------|--0----0--0--0----0------------|

                                                     
--------------------|-------------------------------|
--------------------|-------------------------------|
--3-----------------|-------------------------------|
-----------1--------|--0----0--0--0----0------------|

                                                                 
-------------------------------|--------------------------------|
-------------------------------|--------------------------------|
-------------------------------|--3----3----3-------------------|
--0----0--0--0----0------------|-----------------1----1----1----|

                                                                
-------------------------------|-------------------------------|
-------------------------------|-------------------------------|
--0----0--0--0----0------------|--0----0--0--0----0------------|
-------------------------------|-------------------------------|

                                                                 
--------------------------------|-------------------------------|
--3----3----3-------------------|-------------------------------|
-----------------1----1----1----|--0----0--0--0----0------------|
--------------------------------|-------------------------------|

                                                                 
-------------------------------|--------------------------------|
-------------------------------|--3----3----3-------------------|
--0----0--0--0----0------------|-----------------1----1----1----|
-------------------------------|--------------------------------|

                                                                 
------------------------------|---------------------------------|
--------------2--0------------|-----2--0------------------------|
--0--------0------------------|--0----------3----2----0---------|
------------------------------|----------------------------3----|

                                                                 
------------------------------|---------------------------------|
--------------2--0------------|-----2--0------------------------|
--0--------0------------------|--0----------3----2----0---------|
------------------------------|----------------------------3----|

                                                                 
------------------------------|---------------------------------|
--------------2--0------------|-----2--0------------------------|
--0--------0------------------|--0----------3----2----0---------|
------------------------------|----------------------------3----|

                                                                 
------------------------------|---------------------------------|
--------------2--0------------|-----2--0------------------------|
--0--------0------------------|--0----------3----2----0---------|
------------------------------|----------------------------3----|

                                                                 
------------------------------|---------------------------------|
--------------2--0------------|-----2--0------------------------|
--0--------0------------------|--0----------3----2----0---------|
------------------------------|----------------------------3----|

                                                                 
------------------------------|---------------------------------|
--------------2--0------------|-----2--0------------------------|
--0--------0------------------|--0----------3----2----0---------|
------------------------------|----------------------------3----|

                                                                  
--------------------------------|--------------------------------|
--------------------------------|--------------------------------|
--0----0----0-------------------|--3----3----3-------------------|
-----------------1----1----1----|-----------------3----3----3----|

                                                                  
--------------------------------|--------------------------------|
--------------------------------|--------------------------------|
-----------------3----3----3----|--------------------------------|
--4----4----4-------------------|--4----4----4----4----4----4----|

                                                                        
-----------------------------4--5--7--|--4----5----7----9------7--5----|
--------------------3--5--7-----------|--------------------------------|
-----------3--5--7--------------------|--------------------------------|
--3--5--7-----------------------------|--------------------------------|

                                                                  
--------------------------------|--------------------------------|
--------------------------------|--------------------------------|
--0----0----0----3----3----3----|--------------------------------|
--------------------------------|--1----1----1----3----3----3----|

                                                                  
--------------------------------|--------------------------------|
--------------------------------|--------------------------------|
--0----0----0----3----3----3----|--------------------------------|
--------------------------------|--1----1----1----3----3----3----|

                                                                  
--------------------------------|--------------------------------|
--------------------------------|--------------------------------|
-----------------3----3----3----|--------------------------------|
--4----4----4-------------------|--4----4----4----4----4----4----|

                                                                        
-----------------------------4--5--7--|--4----5----7----9------7--5----|
--------------------3--5--7-----------|--------------------------------|
-----------3--5--7--------------------|--------------------------------|
--3--5--7-----------------------------|--------------------------------|

                                                                  
--------------------------------|--------------------------------|
--------------------------------|--------------------------------|
--0----0----0----0---------0----|--3----3----3-------------------|
----------------------3---------|-----------------1----1----1----|

                                                                  
--------------------------------|--------------------------------|
--------------------------------|--------------------------------|
--0----0----0----0---------0----|--3----3----3-------------------|
----------------------3---------|-----------------1----1----1----|

                                                                  
--------------------------------|--------------------------------|
--------------------------------|--------------------------------|
--0----0----0----0---------0----|--3----3----3-------------------|
----------------------3---------|-----------------1----1----1----|

                                                                  
--------------------------------|--------------------------------|
--------------------------------|--------------------------------|
--0----0----0----0---------0----|--3----3----3-------------------|
----------------------3---------|-----------------1----1----1----|

                                                                             
----------------------------|-------------------|---------------------------|
----------------------------|-------------------|---------------------------|
--0--------------------2----|--3/---------------|---------------------------|
----------------------------|-------------------|----------------------3----|

                                                                        
-------------------|--------------------------|------------------------|
-------------------|------------------3-2-----|------------------------|
--0----------------|--0------0----3-2-----3-2-|--0------0----0-3-2-----|
-------------------|--------------------------|---------------------3--|

                                                                              
--------------------------|------------------------|-------------------------|
------------------3-2-----|------------------------|-------------------8--7--|
--0------0----3-2-----3-2-|--0------0----0-3-2-----|--5----5----5--8-7-------|
--------------------------|---------------------3--|-------------------------|

                                                                              
-------------------------|-------------------------|-------------------------|
-------------------------|-------------------8--7--|-------------------------|
--5----5----5--5-8-7-----|--5----5----5--8-7-------|--5----5----5--5-8-7-----|
----------------------8--|-------------------------|----------------------8--|

                                                           
-----------------------------|----------------------------|
-----------------------------|----------------------------|
-------------------3-2-------|-------------------3-2------|
--0-2-3----0-2-3-2-----3--2--|--0-2-3----0-2-3-2-----3----|

                                                           
-----------------------------|----------------------------|
-----------------------------|----------------------------|
-------------------3-2-------|-------------------3-2------|
--0-2-3----0-2-3-2-----3--2--|--0-2-3----0-2-3-2-----3----|

                                                                         
-----------------------|------------------------|-----------------------|
-----------------------|------------------------|-----------------------|
-----------------2--4--|--5------5--5--4--5--2--|--4------4--4----2--4--|
--2------2--2----------|------------------------|-----------------------|

                                                                          
------------------------|-----------------------|------------------------|
------------------------|-----------------------|------------------------|
--5------5--5--4--5--2--|-----------------2--4--|--5------5--5--4--5--2--|
------------------------|--2------2--2----------|------------------------|

                                                                           
-----------------------|------------------------------|-------------------|
-----------------------|---------------------9--------|-------------------|
--4------4--4----2--4--|------------------7-----7-----|-------------------|
-----------------------|--0-0-0-0-0-0-0-0----------0--|--0----------------|

                                                                  
--------------------------------|--------------------------------|
--------------------------------|--------------------------------|
--0----0----0----0---------0----|--3----3----3-------------------|
----------------------3---------|-----------------1----1----1----|

                                                                  
--------------------------------|--------------------------------|
--------------------------------|--------------------------------|
--0----0----0----0---------0----|--3----3----3-------------------|
----------------------3---------|-----------------1----1----1----|

                                                                  
--------------------------------|--------------------------------|
--------------------------------|--------------------------------|
--0----0----0----0---------0----|--3----3----3-------------------|
----------------------3---------|-----------------1----1----1----|

                                                                  
--------------------------------|--------------------------------|
--------------------------------|--------------------------------|
--0----0----0----0---------0----|--3----3----3-------------------|
----------------------3---------|-----------------1----1----1----|

                                                                                
-------------------|-------------------|-------------------|-------------------|
-------------------|-------------------|-------------------|-------------------|
--0----------------|-------------------|--0----------------|-------------------|
-------------------|----------0--------|-------------------|----------0--------|

                                                                         
--------------------------|---------------------|-----------------------|
--------------------------|---------------------|-----------------------|
--0--0--0--0--0--2--4--0--|--2------------------|--0--------0--2--4--0--|
--------------------------|---------0--0--------|-----------------------|

                                                                            
---------------------|--------------------------|--------------------------|
---------------------|--------------------------|--------------------------|
--2------------------|--------------------2--4--|--5--5--5--5--5--4--5--4--|
---------0--0--------|--2--2--2--2--2--2--------|--------------------------|

                                                      
--------------------------|--------------------------|
--------------------------|--------------------------|
--------------------2--4--|--5--5--5--5--5--4--5--4--|
--2--2--2--2--2--2--------|--------------------------|

                                                      
--------------------------|--------------------------|
--------------------------|--------------------------|
--------------------2--4--|--5--5--5--5--5--4--5--4--|
--2--2--2--2--2--2--------|--------------------------|

                                                                           
--------------2--2--2--2--|------------------------|----------------------|
--------------------------|--------------2----2----|--2----2----2----2----|
--0--0--0--0--------------|------------------------|----------------------|
--------------------------|--0--0--0--0------------|----------------------|

                                                                           
--------------------|--------------------|--------------------------------|
--------------------|--------------------|--------------------------------|
--0--------0--------|--0--------0--------|--0----0----0----0---------0----|
--------------------|--------------------|----------------------3---------|

                                                                  
--------------------------------|--------------------------------|
--------------------------------|--------------------------------|
--3----3----3-------------------|--0----0----0----0---------0----|
-----------------1----1----1----|----------------------3---------|

                                                                  
--------------------------------|--------------------------------|
--------------------------------|--------------------------------|
--3----3----3-------------------|--0----0----0----0---------0----|
-----------------1----1----1----|----------------------3---------|

                                                                  
--------------------------------|--------------------------------|
--------------------------------|--------------------------------|
--3----3----3-------------------|--0----0----0----0---------0----|
-----------------1----1----1----|----------------------3---------|

                                                                
--------------------------------|------------------------------|
--------------------------------|------------------------------|
--3----3----3-------------------|--0--------0----0-------------|
-----------------1----1----1----|-------------------------0----|

                                                                 
-------------------------------|--------------------------------|
-------------------------------|--------------------------------|
--0--------0----3----2---------|--0----0--0--0----0--------0----|
--------------------------3----|--------------------------------|

                                                                 
---------------------------------|------------------------------|
---------------------------------|------------------------------|
--0----0--0--0----3----2---------|--0--------0----0-------------|
----------------------------3----|-------------------------0----|

                                                                 
-------------------------------|--------------------------------|
-------------------------------|--------------------------------|
--0--------0----3----2---------|--0----0--0--0----0--------0----|
--------------------------3----|--------------------------------|

                                                                     
---------------------------------|----------------------------------|
---------------------------------|----------------------------------|
--0----0--0--0----3----2---------|--1----1--1--1----1----1--1--1----|
----------------------------3----|----------------------------------|

                                                                      
----------------------------------|----------------------------------|
----------------------------------|----------------------------------|
--1----1--1--1----1----1--1--1----|--0----0--0--0----0----0--0--0----|
----------------------------------|----------------------------------|

                                                               
----------------------------------|---------------------------|
----------------------------------|---------------------------|
--0----0--0--0----0----0--0--0----|---------------------------|
----------------------------------|--1------------------------|

                                                          
-----------------------------|---------------------------|
-----------------------------|---------------------------|
--------------3----2---------|--0------------------------|
------------------------3----|---------------------------|

                                                         
----------------------------|---------------------------|
----------------------------|---------------------------|
----------------------------|---------------------------|
------------------0----3----|--1------------------------|

                                                                                
-----------------------------|-------------------|-----------------------------|
-----------------------------|-------------------|-----------------------------|
--------------3----2----3----|--0----------------|--------------3----2----3----|
-----------------------------|-------------------|-----------------------------|

                                                                  
--------------------------------|--------------------------------|
--------------------------------|--------------------------------|
--------------------------------|--------------------------------|
--3----3----3----1----1----1----|--0----0----0----1----1----1----|

                                                                  
--------------------------------|--------------------------------|
--------------------------------|--------------------------------|
--------------------------------|--------------------------------|
--3----3----3----1----1----1----|--0----0----0----1----1----1----|

                                                                  
--------------------------------|--------------------------------|
--------------------------------|--------------------------------|
--------------------------------|--------------------------------|
--3----3----3----1----1----1----|--0----0----0----1----1----1----|

                                                                  
--------------------------------|--------------------------------|
--------------------------------|--------------------------------|
--------------------------------|--------------------------------|
--3----3----3----1----1----1----|--0----0----0----1----1----1----|

                                                                  
--------------------------------|--------------------------------|
--------------------------------|--------------------------------|
--0----0----0----0---------0----|--3----3----3-------------------|
----------------------3---------|-----------------1----1----1----|

                                                                  
--------------------------------|--------------------------------|
--------------------------------|--------------------------------|
--0----0----0----0---------0----|--3----3----3-------------------|
----------------------3---------|-----------------1----1----1----|

                                                                  
--------------------------------|--------------------------------|
--------------------------------|--------------------------------|
--0----0----0----0---------0----|--3----3----3-------------------|
----------------------3---------|-----------------1----1----1----|

                                                                  
--------------------------------|--------------------------------|
--------------------------------|--------------------------------|
--0----0----0----0---------0----|--3----3----3-------------------|
----------------------3---------|-----------------1----1----1----|

                                                                  
--------------------------------|--------------------------------|
--------------------------------|--------------------------------|
--0----0----0----0---------0----|--3----3----3-------------------|
----------------------3---------|-----------------1----1----1----|

                                                                  
--------------------------------|--------------------------------|
--------------------------------|--------------------------------|
--0----0----0----0---------0----|--3----3----3-------------------|
----------------------3---------|-----------------1----1----1----|

                                                                  
--------------------------------|--------------------------------|
--------------------------------|--------------------------------|
--0----0----0----0---------0----|--3----3----3-------------------|
----------------------3---------|-----------------1----1----1----|

                                                                  
--------------------------------|--------------------------------|
--------------------------------|--------------------------------|
--0----0----0----0---------0----|--3----3----3-------------------|
----------------------3---------|-----------------1----1----1----|

                                                                           
------------------------|------------------------|------------------------|
------------------------|------------------------|------------------------|
--0-2-3----0-2-3--------|--0-2-3----0-2-3--------|--0-2-3----0-2-3--------|
------------------------|------------------------|------------------------|

                                                                           
------------------------|------------------------|------------------------|
------------------------|------------------------|------------------------|
--0-2-3----0-2-3--------|----1-2------1-2--------|----1-2------1-2--------|
------------------------|--4--------4------------|--4--------4------------|

                                                                           
------------------------|------------------------|------------------------|
------------------------|------------------------|------------------------|
----1-2------1-2--------|----1-2------1-2--------|--0-2-3----0-2-3--------|
--4--------4------------|--4--------4------------|------------------------|

                                                                           
------------------------|------------------------|------------------------|
------------------------|------------------------|------------------------|
--0-2-3----0-2-3--------|--0-2-3----0-2-3--------|--0-2-3----0-2-3--------|
------------------------|------------------------|------------------------|

                                                                           
------------------------|------------------------|------------------------|
------------------------|------------------------|------------------------|
----1-2------1-2--------|----1-2------1-2--------|----1-2------1-2--------|
--4--------4------------|--4--------4------------|--4--------4------------|

                                                                           
------------------------|------------------------|------------------------|
------------------------|------------------------|------------------------|
----1-2------1-2--------|--0-2-3----0-2-3--------|--0-2-3----0-2-3--------|
--4--------4------------|------------------------|------------------------|

                                                                           
------------------------|------------------------|------------------------|
------------------------|------------------------|------------------------|
--0-2-3----0-2-3--------|--0-2-3----0-2-3--------|----1-2------1-2--------|
------------------------|------------------------|--4--------4------------|

                                                                           
------------------------|------------------------|------------------------|
------------------------|------------------------|------------------------|
----1-2------1-2--------|----1-2------1-2--------|----1-2------1-2--------|
--4--------4------------|--4--------4------------|--4--------4------------|
шаблоны для dle 11.2
https://guitar1st.ru/33169-a-dark-passage.html
Пожалуйста не удаляйте ссылку на источник!

Видео


Аппликатура распознанных аккордов:

Добавить комментарий

Оставить комментарий

Кликните на изображение чтобы обновить код, если он неразборчив