{instrum_title}

Бони Нем - Яблоки на снегу Аккорды, Табы


Страницы: 1 2 3 4
 DISTORSION:
4|----3---5---3---5---------8--------5-------|
5|----3---5---3---5---------8--------5-------|
6|----1---3---1---3---------6--------3-------|
3----------------------5----|
4|----5----------------------------5----|
5|----5----------------------------3----|
6|----3---------------------------------|
      Яблоки на снегу, розовое на белом!
3------------3--------------|
4|----3------------------3--------------|
5|----3------------------1--------------|
6|----1---------------------------------|
      Что же нам с ними делать...
3|----5---------------------------------|
4|----5----------------7----------------|
5|----3----------------5----------------|
6----------5----------------|
     С яблоками на снегу!
5|--3--5-6-5----3--5-6-5----3--5-6-5----3--5-6-5--|
   Й-Я-А-А-Аблоки на снегу
3---------|
4|----5---------------|
5|----5---------------|
6|----3---------------|
      Яблоки на снегу
3|----5------------------------------|
4|----5------------7----5------------|
5|----3------------5----5------------|
6------5----3------------|
     Что же нам с ними делать
3|----5----------------------------|
4|----5---------7-----5------------|
5|----3---------5-----5------------|
6---5-----3------------|
    С яблоками на снегу
шаблоны для dle 11.2
https://guitar1st.ru/19607-yabloki-na-snegu.html
Пожалуйста не удаляйте ссылку на источник!

Видео


Аппликатура распознанных аккордов:

Добавить комментарий

Оставить комментарий

Кликните на изображение чтобы обновить код, если он неразборчив