{instrum_title}

Dir En Grey - Jealous Аккорды, Табы


---------------------------------------------------------------------------
                           JEALOUS - Dir En Grey
---------------------------------------------------------------------------
Tabbed by: Matheus
Tuning: e | B | G | D | A | E
e-|-----------------------------------------------------------------------|
B-|-----------------------------------------------------------------------|
G-|-----1-2-1-----2-4b----4b-4b-4b-4-2-4-2-1------1/2-1---2---------------|
D-|-2-4-------2-4----------------------------2----------2-----------------|
A-|-----------------------------------------------------------------------|
E-|-----------------------------------------------------------------------|
e-|----------------------------------------------12-----------------------|
B-|-----10-9-----9-10---12-10-9--109/10--12109--109-12109-12-10-9-|
G-|-11-------11-----------------------------------------------------------|
D-|-----------------------------------------------------------------------|
A-|-----------------------------------------------------------------------|
E-|-----------------------------------------------------------------------|
e-|-------16--17--16b--14--17-16b--14---19-17-16-17-----------------------|
B-|-/14-------------------------------------------------------------------|
G-|-----------------------------------------------------------------------|
D-|-----------------------------------------------------------------------|
A-|-----------------------------------------------------------------------|
E-|-----------------------------------------------------------------------|
e-|-------16-17---16-17--16-17-17b-16-17-16-17b-16/17---------------------|
B-|-----14------15--------------------------------------------------------|
G-|-----------------------------------------------------------------------|
D-|-----------------------------------------------------------------------|
A-|-----------------------------------------------------------------------|
E-|-----------------------------------------------------------------------|
| /  slide up
|   slide down
| b  bend
===========================================================================
шаблоны для dle 11.2
https://guitar1st.ru/31688-jealous.html
Пожалуйста не удаляйте ссылку на источник!

Видео


Аппликатура распознанных аккордов:

Добавить комментарий

Оставить комментарий

Кликните на изображение чтобы обновить код, если он неразборчив