{instrum_title}

Dissection - At The Fathomless Depths Аккорды, Табы


/---------------------------------------------------------------------------
/ The following is the author's own interpertation of the song, to be used -
/ for studying or private use only                                         -
/---------------------------------------------------------------------------
                         DISSECTION - AT THE FATHOMLESS DEPTHS
                         From the Album STORM OF THE LIGHT'S BANE
                         Copyright 1995 Nuclear Blast
                              Version 1.01 - December 1996
                                  
Transcription Done By: Pierre Sarda(BOZ)
For Questions, Comments, Corrections, or Newest Version; 
          please contact BOZ at sarda@isen.fr
.  - palm mute                          /  - slide up to                       
  - slide down to                      ~  - vibrato                            
Tuning: Normal
Riff A
||-0-----6-----0-----8-----0-----6-----0-----7-----|
||-0-----6-----0-----8-----0-----6-----0-----7-----|
||-0-----6-----0-----8-----0-----6-----0-----7-----| Guit 1&2
||-2-----8-----2-----10----2-----8-----2-----9-----|
||-2-----8-----2-----10----2-----8-----2-----9-----|
||-0-----6-----0-----8-----0-----6-----0-----7-----|
||-0-----6-----0-----8-----0-----6-----0-----7---------------|
||-0-----6-----0-----8-----0-----6-----0-----7---------------|
||-0-----6-----0-----8-----0-----6-----0-----7---------------| Guit 1
||-2-----8-----2-----10----2-----8-----2-----9---------------|
||-2-----8-----2-----10----2-----8-----2-----9---------------|  
||-0-----6-----0-----8-----0-----6-----0-----7---------------|
||
||-----------------------------------------------------------|
||-----------------------------------------------------------|
||-----------------------------------------------------------| Guit 2
||------------------------------------------2----------------|
||--------------------------------------------3-2-0----------|
||--------------------------------------------------3-2------|
   Riff 1
||-0------------6-------0---8------0-----------6---------0-----7-------|
||-0------------6-------0---8------0-----------6---------0-----7-------|
||-0------------6-------0---8------0-----------6---------0-----7-------| Guit1
||-2------------8-------2---10-----2-----------8---------2-----9-------|
||-2------------8-------2---10-----2-----------8---------2-----9-------|
||-0------------6-------0---8------0-----------6---------0-----7-------|
||
||---------------------------------------------------------------------|
||---------------------------------------------------------------------|
||---------------------------------------------------------------------| Guit2
||------------9-8------------------------------9-8---------------------|
||-7-6-7-9-10-----9-9-10-7-7-6--679-7-6-7-9-10-----9-9-10-7-7-6--------|
||----------------------------78--------------------------------87532--|

                                                        (end of Riff 1)
||-0------------6-------0---8------0-----------6---------0-----7-------|
||-0------------6-------0---8------0-----------6---------0-----7-------|
||-0------------6-------0---8------0-----------6---------0-----7-------| Guit1
||-2------------8-------2---10-----2-----------8---------2-----9-------|
||-2------------8-------2---10-----2-----------8---------2-----9-------|
||-0------------6-------0---8------0-----------6---------0-----7-------|
||
||---------------------------------------------------------------------|
||---------------------------------------------------------------------|
||---------------------------------------------------------------------| Guit2
||------------9-8------------------------------9-8---------------------|
||-7-6-7-9-10-----9-9-10-7-7-6-6796-7-6-7-9-10-----9-9-10-7-7-6--------|
||----------------------------8---------------------------------87532--|
   Harmony
||---------------------------------------------------------------------|
||---------------------------------------------------------------------| Guit1
||------------7-6------------------------------7-6---------------------|
||-5-4-5-7-9------8-8-9--5-5-4---457-5-4-5-7-9------8-8-9-5-5-4--------|
||----------------------------6-7-------------------------------76320--|
||---------------------------------------------------------------------|
||
||---------------------------------------------------------------------|
||---------------------------------------------------------------------|
||---------------------------------------------------------------------| Guit2
||------------9-8------------------------------9-8---------------------|
||-7-6-7-9-10-----9-9-10-7-7-6--679-7-6-7-9-10-----9-9-10-7-7-6--------|
||----------------------------78--------------------------------87532--| 
Listen to song when to play what, its easy to figure out what comes when.
For questions, corrections, comments etc.. contact Sarda at n4096@isen.fr
Contact Displacer to join to The Death Tab Mailing list at
	ferris@saturn.superlink.net
шаблоны для dle 11.2
https://guitar1st.ru/31704-at-the-fathomless-depths.html
Пожалуйста не удаляйте ссылку на источник!

Видео


Аппликатура распознанных аккордов:

Добавить комментарий

Оставить комментарий

Кликните на изображение чтобы обновить код, если он неразборчив