{instrum_title}

Down - Ghost Along The Mississippi Аккорды, Табы


Страницы: 1 2
Tabbed by Paul Culler, email me for any corrections to the song at metallica4eve69@hotmail.com
Enjoy the song and rock on!
Ghost ALong the Mississippi by Down.

Tune down to Db or 1 1/2 steps down:
Intro:  X3
------------------------------------------------------------|
------------------------------------------------------------|
------------------------------------------------------------|
----------5p-0----------------------------------------------|
----------------5p-0--------------0h-1----------------------|
-0-0-0-0--------------5p-0--3p-0----------------------------|
  p.m
Fill when drums come in:
---------------------------------------------------|
---------------------------------------------------|
---------------------------------------------------|
---------------------------------------------------|
---------------------------------------------------|
----0-0-0-0-0-0--12/-0-----------------------------|
Intro part 2: X2
-------------------------------------------------------------------|
-------------------------------------------------------------------|
-------------------------------------------------------------------|
----------5p-0------------------------------------5p-0-------------|
----------------5p-0---------------0h-1-----------------5p-0-------|
-0-0-0-0---------------5p-0--3p-0---------0-0-0-0-------------5p-0-|
   p.m.                                     p.m.
--------------------------------------------------------------------------|
--------------------------------------------------------------------------|
--------------------------------------------------------------------------|
-----------------5p-0----------------------------5p-0---------------------|
-----------------------5p-0--------0h-1----------------5p-0--------5/-7---|
-0h-1----0-0-0-0-------------5p-0--------0-0-0-0-------------5p-0---------|
           p.m.                            p.m.
Verse:
----------------------------------------------------------------------|
----------------------------------------------------------------------|
----------------------------------------------------------------------|
----6~~--4------------6~~---4~~--------6~~--4~~------6~~--4~~---------|
----7~~--5--4~~-------7~~---5~~--4~~---7~~--5~~-4~~--7~~--5~~-4~~-----|
----0----0------------0-----0----------0----0--------0----0-----------|
------------------------------------------------------------------------|
------------------------------------------------------------------------|
-9---------7-6---9----------7-6---9---------7-6---9--------7-6----------|
------------------------------------------------------------------------|
-7-10/-12--5-4---7--10/-12--5-4---7-10/-12--5-4---7-10/-12-5-4----------|
-0---------------0----------------0---------------0---------------------|

Second Part under verse:
-----------------------------------|
-----15b--15b--15b--15b------------|
-----------------------------------|
-----------------------------------|
-----------------------------------|
-----------------------------------|
Bridge:
-----------------------------------|
-----------------------------------|
-----------------------------------|
---7--5----2-----------------------|
---5--3----2-----------------------|
---5--3----0-----------------------|

Chorus:
---------------------------------------------------------------|
---------------------------------------------------------------|
---------------------------X4----------------------------------|
---10/--9------------------------------------------------------|
----8/--7-9-9-10/-9-10/-9-------5--4--2----5--4--2-------------|
----------7-7--8/-7--8/-7-------3--2--0----3--2--0-------------|
Back to Intro Part 2 X2
Back to Verse
Back to Bridge
Back to Chorus
Into Breakdown:
--------------------------------------------------------------------------|
--------------------------------------------------------------------------|
--------12----------------------------------------------------------------|
--------12----------12----------------------------------------------------|
--------10--12/-14------11--10--------------------------------------------|
--0-0-0------------------9---8--------------------------------------------|

Back into intro part 2 w/ solo:  (for solo just use Db penatonic)
Into this:
--------------------------------------|
--------------------------------------|
--------------------------------------|
--------------------------------------|
--5--4--2-------5--4--2---------------|
--3--2--0-------3--2--0---------------|

END

шаблоны для dle 11.2

https://guitar1st.ru/31774-ghost-along-the-mississippi.html
Пожалуйста не удаляйте ссылку на источник!

Видео


Аппликатура распознанных аккордов:

Добавить комментарий

Оставить комментарий

Кликните на изображение чтобы обновить код, если он неразборчив