{instrum_title}

Duran Duran - A View To A Kill Аккорды, Табы


Страницы: 1 2
Artist: Duran Duran
Song Title: A View To A Kill
Album: James Bond Soundtrack (1985)
Song Duration: 03:35 min
Tabbed by: Vuk Krajacic (krajac@eunet.yu)
Instructions:
/ - Slide down

Main riff (00:04)
G|-------------------------------------------------------------|
D|-------1--1--------------------------------------------------|
A|--3----------3---2----------3---1---------1--------------1---|
E|----------------------3--3----------3--3-----1----3--3-------| 

G|-------------------------------------------------------------|
D|-------1--1--------------------------------------------------|
A|--3----------3---2----------3---1---------1--------------1---|
E|----------------------3--3----------3--3-----1----3--3-------| 

Verse 1 (00:19)
G|-------------------------------------------------------------|
D|-------------------------------------------------------------|
A|--3---3--3-3----3---3--3-3----3---3--3-3----3---3--3-3-------|
E|-------------------------------------------------------------|

G|-------------------------------------------------------------|
D|-------------------------------------------------------------|
A|--3---3--3-3----3---3--3-3----3---3--3-3----3---3--3-3-------|
E|-------------------------------------------------------------|

Verse end (00:34)
G|----------------------------------|
D|-------1--1-----------------------|
A|--3----------3---3----------1-----|
E|----------------------3--3--------|

G|----------------------------------|
D|-------1--1-----------------------|
A|--3----------3---3----------1-----|
E|----------------------3--3--------|

Main riff (00:42)
G|-------------------------------------------------------------|
D|-------1--1--------------------------------------------------|
A|--3----------3---2----------3---1---------1--------------1---|
E|----------------------3--3----------3--3-----1----3--3-------| 

G|-------------------------------------------------------------|
D|-------1--1--------------------------------------------------|
A|--3----------3---2----------3---1---------1--------------1---|
E|----------------------3--3----------3--3-----1----3--3-------|

Pre-Chorus (00:57)
G|-----------------------------------------------------------|
D|------------------------4-3-1------------------------------|
A|----------------6----6-----------2---0-2-2----4-----0-4----|
E|--4----2--4--2---------------------------------------------| 

G|-----------------------------------------------------------|
D|------------------------4-3-1------------------------------|
A|----------------6----6-----------2---0-2-2----4------------|
E|--4----2--4--2---------------------------------------------| 

Chorus (01:12)
G|-----------------------------4---5-------------------------------|
D|------------2---4------------------------------------------------|
A|---------------------------2---3-----4---4-4----4-6---6-6-----6--|
E|--0--000--0---2----4----4----------------------------------------| 

G|-----------------------------4---5-------------------------------|
D|------------2---4------------------------------------------------|
A|---------------------------2---3-----4---4-4----4-6---6-6--------|
E|--0--000--0---2----4----4----------------------------------------| 

G|--------------------------4---5-------------------------------|
D|---------2---4------------------------------------------------|
A|------------------------2---3-----4---4-4----4-6---6-6-----6--|
E|--0----0---2----4----4----------------------------------------| 

G|-----------------------------4---5-----------------------------------|
D|------------2---4---------------------------------------4------------|
A|---------------------------2---3-----4---4-4----4-6---6---6-4--------|
E|--0--000--0---2----4----4-------------------------------------4------| 

Chorus end (01:45)
G|--------------------|
D|--------------------|
A|--4-6-4-------------|
E|--------4------| 

Verse 2 (01:49)
G|---------------------------------------------------------------------|
D|---------------------------------------------------------------------|
A|--0-3-0---3---3--3-3----3---3--3-3----3---3--3-3----3---3--3-3-------|
E|---------------------------------------------------------------------|

G|-------------------------------------------------------------|
D|-------------------------------------------------------------|
A|--3---3--3-3----3---3--3-3----3---3--3-3----3---3--3-3-------|
E|-------------------------------------------------------------|

Verse end (02:05)
G|----------------------------------|
D|-------1--1-----------------------|
A|--3----------3---3----------1-----|
E|----------------------3--3--------|

G|----------------------------------|
D|-------1--1-----------------------|
A|--3----------3---3----------1-----|
E|----------------------3--3--------|

Main riff (02:13)
G|-------------------------------------------------------------|
D|-------1--1--------------------------------------------------|
A|--3----------3---2----------3---1---------1--------------1---|
E|----------------------3--3----------3--3-----1----3--3-------| 

G|-------------------------------------------------------------|
D|-------1--1--------------------------------------------------|
A|--3----------3---2----------3---1---------1--------------1---|
E|----------------------3--3----------3--3-----1----3--3-------|

Pre-Chorus (02:28)
G|-----------------------------------------------------------|
D|------------------------4-3-1------------------------------|
A|----------------6----6-----------2---0-2-2----4-----0-4----|
E|--4----2--4--2---------------------------------------------| 

G|-----------------------------------------------------------|
D|------------------------4-3-1------------------------------|
A|----------------6----6-----------2---0-2-2----4------------|
E|--4----2--4--2---------------------------------------------| 

Chorus (02:43)
G|-----------------------------4---5-------------------------------|
D|------------2---4------------------------------------------------|
A|---------------------------2---3-----4---4-4----4-6---6-6-----6--|
E|--0--000--0---2----4----4----------------------------------------| 

G|-----------------------------4---5-------------------------------|
D|------------2---4------------------------------------------------|
A|---------------------------2---3-----4---4-4----4-6---6-6--------|
E|--0--000--0---2----4----4----------------------------------------| 

G|--------------------------4---5-------------------------------|
D|---------2---4------------------------------------------------|
A|------------------------2---3-----4---4-4----4-6---6-6-----6--|
E|--0----0---2----4----4----------------------------------------| 

G|-----------------------------4---5-------------------------------|
D|------------2---4----------------------------------------4-------|
A|---------------------------2---3-----4---4-4----4-6---6---6-4----|
E|--0--000--0---2----4----4-------------------------------------4--| 

Outro (03:13)
G|-------------------------------|
D|-------------2---4-------------|
A|--68--------------------------|
E|------0-0--0---0---4---(4-4-4)-|

G|----------------------------|
D|----------2---4-------------|
A|----------------------------|
E|--0---0-0---0---4---(4-4-4)-|

G|----------------------------|
D|----------2---4-------------|
A|----------------------------|
E|--0---0-0---0---4---(4-4-4)-|

G|-----------------------------------|
D|----------2---4----------4---------|
A|---------------------------6-------|
E|--0---0-0---0---4----4-4-----4-----|
End.


Please send your comments to krajac@eunet.yu

шаблоны для dle 11.2

https://guitar1st.ru/31862-a-view-to-a-kill.html
Пожалуйста не удаляйте ссылку на источник!

Видео


Аппликатура распознанных аккордов:

Добавить комментарий

Оставить комментарий

Кликните на изображение чтобы обновить код, если он неразборчив