{instrum_title}

Enslaved - Nidingaslakt Аккорды, Табы


                         ENSLAVED - NIDINGASLAKT
                         From the Album BLODHEMN
                         Copyright 1998 OSMOSE PRODUCTIONS
                      
                            Version 1.01 - MAY 1999
Transcribed by: Yalaz Ozkanli
For Questions, Comments, Newest Version, or Corrections contact
		Yalaz Ozkanli (fingolfin@hotmail.com)
.  - palm mute                  /  - slide up to
  - slide down to              ~  - vibrato             
h  - hammer on                  b  - bend 
p  - pull off                        Suffixes for bend    
ph - pinch harmonic                      f - full bend    h - half bend
*  - see comment                         r - release      t - tap bend
X  - percussion mute                     ~ - vibrato bend
@  - slight palm mute           () - ghost note, sustained note
 Riff Ai
|-----------------------------------------|
|-----------------------------------------|
|-5----4-5--4----7----5----4-5--4----7----|
|-5----4-5--4-5--7----5----4-5--4-5--5----|
|-3----2-3--2-5--5----3----2-3--2-5--5----|
|-------------3-------------------3-------|
 Riff Aii
|-----------------------------------------|
|-----------------------------------------|
|-5----4-5--4----7----5----4-5--4----7----|GTR
|-5----4-5--4-5--7----5----4-5--4-5--5----| 1
|-3----2-3--2-5--5----3----2-3--2-5--5----|
|-------------3-------------------3-------|
|-----------------------------------------|
|-----------------------------------------|
|-/9hb~~----------------------------------|GTR
|-----------------------------------------| 2
|-----------------------------------------|
|-----------------------------------------|
[--------------------------------x4] (Last time don't play the last 2 PM's)
 Riff B
|----------------------------------|
|----------------------------------|
|-5---5---5---5---4---5-------7----|
|-5---5---5---5---4---5---5---7----|
|-3-333-333-333-332-223-335---5-55-|
|-------------------------3-33-----|
    ..  ..  ..  ..  ..  ..  ..  ..
 Riff Ci
|----------------------------------------------------------------|
|-????????????????????????????????????????????????????????????---|
|-????????????????????????????????????????????????????????????---|GTR
|----------------------------------------------------------------| 1
|----------------------------------------------------------------|
|----------------------------------------------------------------|
|                                                                |
|----------------------------------------------------------------|
|----------------------------------------------------------------|
|-2-2-4-4---9---9-2-2-4-4-9---9--2-2-4-4---9---9-2-2-4-4-9---9---|GTR
|-2-2-4-4---9---9-2-2-4-4-9---9--2-2-4-4---9---9-2-2-4-4-9---9-8-| 2
|-0-0-2-2-777-777-0-0-2-2-7-777--0-0-2-2-777-777-0-0-2-2-7-777-6-|
|----------------------------------------------------------------|
          ..  ..            ..           ..  ..            ..
[-----------------------------------------x2]
|-------------------------------------------|
|-------------------------------------------|
|-------------------------------------------|
|-9---9-9/10109---9-8-9---9-9-10109---8---|
|-7-777-7/8-8-7-777-6-7-777-7/8-8-7-776-9-|
|-----------------------------------------7-|
    ..           ..      ..           ..
[-----------------------------------------------------------------
Riff D
|-----------------------------------------------------------------
|-----------------------------------------------------------------
|----------------------------------------------------------------- 
|-7-7-7-7-7-7-7-7-5-5-5-5-5-5-5-5-7-7-7-7-7-7-7-7-5-9-9-9-9-9-9-9- 
|-5-5-5-5-5-5-5-5-3-3-3-3-3-3-3-3-5-5-5-5-5-5-5-5-3-7-7-7-7-7-7-7-
|-----------------------------------------------------------------
 -------------------------------------------------------x2]
 ---------------------------------------------------------|
 ---------------------------------------------------------|
 ---------------------------------------------------------|
 -1010101010101010101010109-9-9-9-9-9-9-9-4-4-4-4-4-4-4-4-|
 -8-8-8-8-8-8-8-8-8-8-8-8-7-7-7-7-7-7-7-7-2-2-2-2-2-2-2-2-|
 ---------------------------------------------------------|
Riff Cii
|--------------------------------------------------------|
|--------------------------------------------------------|
|-2-2-4-4---9---9-2-2-4-4-9---9--2-2-4-4---9---9-2-2-4-4-|
|-2-2-4-4---9---9-2-2-4-4-9---9--2-2-4-4---9---9-2-2-4-4-|
|-0-0-2-2-777-777-0-0-2-2-7-777--0-0-2-2-777-777-0-0-2-2-|
|--------------------------------------------------------|
          ..  ..            ..           ..  ..
[-----------------------------------------x2]
|-------------------------------------------|
|-------------------------------------------|
|-------------------------------------------|
|-9---9-9/10109---9-8-9---9-9-10109---8---|
|-7-777-7/8-8-7-777-6-7-777-7/8-8-7-776-9-|
|-----------------------------------------7-|
    ..           ..      ..           ..
Riff D x2
Riff Cii
Riff Ai
Riff B x4
Riff Ciii
|--------------------------------------------------------------
|--------------------------------------------------------------
|-2-2-4-4---9---9-2-2-4-4-9---9--2-2-4-4---9---9-2-2-4-4-9---9-
|-2-2-4-4---9---9-2-2-4-4-9---9--2-2-4-4---9---9-2-2-4-4-9---9-
|-0-0-2-2-777-777-0-0-2-2-7-777--0-0-2-2-777-777-0-0-2-2-7-777-
|--------------------------------------------------------------
          ..  ..            ..           ..  ..            ..
 ---------------------------------------------------------|
 ---------------------------------------------------------|
 -2-2-4-4---9---9-2-2-4-4-9---9--2-2-4-4---9---9-2-8-9----|
 -2-2-4-4---9---9-2-2-4-4-9---9--2-2-4-4---9---9-2-8-9----|
 -0-0-2-2-777-777-0-0-2-2-7-777--0-0-2-2-777-777-0-6-7-77-|
 ---------------------------------------------------------|
          ..  ..            ..           ..  ..        .. 
[-----------------------------------------x4]
|-------------------------------------------|
|-------------------------------------------|
|-------------------------------------------|
|-9---9-9/10109---9-8-9---9-9-10109---8---|
|-7-777-7/8-8-7-777-6-7-777-7/8-8-7-776-9-|
|-----------------------------------------7-|
    ..           ..      ..           ..
Drum Fill
|-------|
|-------|
|-0-0---|
|-2-2---|
|-2-2---|
|-------|
Voila, C'est tout! :)
Enjoy!
шаблоны для dle 11.2
https://guitar1st.ru/31152-nidingaslakt.html
Пожалуйста не удаляйте ссылку на источник!

Видео


Аппликатура распознанных аккордов:

Добавить комментарий

Оставить комментарий

Кликните на изображение чтобы обновить код, если он неразборчив