{instrum_title}

Entombed - Blood Song Аккорды, Табы


ENTOMBED
                              
                                                     BLOOD SONG
                                                 FROM WOLVERINE BLUES

Tune down to C
riff 1 
 w/wah
|-------------------------------------|-------------------------------------|  
|-------------------------------------|-------------------------------------|  
|-------------------------------------|-------------------------------------|
|-------6---5555-5-------6---5-8-7-10-|-------6---5555-5-------6---5-8-7-10-|
|-2---2-4-4-3333-3-4---4-4-4-3-6-5-8--|-2---2-4-4-3333-3-4---4-4-4-3-6-5-8--|
|-4---4---2--------2---2---2----------|-4---4---2--------2---2---2----------|
                  
|-------------------------------------|-------------------------------------|
|-------------------------------------|-------------------------------------|
|-------------------------------------|-------------------------------------|
|-------6---5555-5-------6---5-7-6-8--|-------6---5555-5-------6---5-6-8-9--|
|-2---2-4-4-3333-3-4---4-4-4-3-5-4-6--|-2---2-4-4-3333-3-4---4-4-4-3-4-6-7--|
|-4---4---2--------2---2---2----------|-4---4---2--------2---2---2----------|   

riff 2
|--------------------------------------|---------------------------------------|
Sometimes
|--------------------------------------|---------------------------------------|
played
|--------------------------------------|---------------------------------------|
differently
|-------6---5--55-5--------6---5-7-6-8-|-------6---5--55-5--------6---5-8-7-10-|
|-2---2-4-4-3--33-3--4---4-4-4-3-5-4-6-|-2---2-4-4-3--33-3--4---4-4-4-3-6-5-8--|
|-4---4---2----------2---2---2---------|-4---4---2----------2---2---2----------|
  .   .   .    .. .      .   .           .   .   .    .. .      .   .
riff 3
|-----------------------------|
|-----------------------------| 
|-----------------------------| 
|-----------------------------| I'm not sure at all ?!!!
|-2-----4----4----4---7-7-7-7-| 
|-0--00-2-00-2-00-2-0-5-5-5-5-|  
     ..   ..   ..   .
riff 4
|--------------------------------------|---------------------------------------| 
|--------------------------------------|---------------------------------------| 
|--------------------------------------|---------------------------------------| 
|-------6---5--55-5--------6---5-6-8-9-|-------6---5--55-5--------6---5-8-7-10-|
|-4---4-4-4-3--33-3--4---4-4-4-3-4-6-7-|-4---4-4-4-3--33-3--4---4-4-4-3-6-5-8--|
|-2---2---2----------2---2---2---------|-2---2---2----------2---2---2----------|
riff 5
|---------------------------|----------------------------------------|
|---------------------------|----------------------------------------|
|---------------------------|----------------------------------------|
|---------------------------|----------------------------------------|
|-4-4-2-2---4-4-4-7-7-5-5-5-|-4-4-2-2--2-2-2-2-2-2---4-4-4-7-7-5-5-5-|
|-2-2-0-0---2-2-2-5-5-3-3-3-|-2-2-0-0--0-0-0-0-0-0---2-2-2-5-5-3-3-3-|
      .                           .    . .   . . .  
Then comes the bass...
and the solo
riff 6
|-xx--xx--xx--xx-|------------------------|
|-xx--xx--xx--xx-|------------------------|
|-xx--xx--xx--xx-|------------------------|
|-xx--xx--xx--xx-|------------------------|
|-xx--xx--xx--xx-|-2-2-4-----8-8-5--5-5-5-|
|-xx--xx--xx--xx-|-0-0-2-222-6-6-3--3-3-3-|
                         ...
riff 7
|-----------------------|
|-----------------------|
|-----------------------|
|-----------------------|
|-2--22-2-2-8--88-5--55-|
|-0--00-0-0-6--66-3--33-|
riff 8
|-------------------------------------|-------------------------------------|  
|-------------------------------------|-------------------------------------|  
|-------------------------------------|-------------------------------------|
|-------6---5555-5-------6---5-7-6-8--|-------6---5555-5-------6---5-8-7-10-|
|-2---2-4-4-3333-3-4---4-4-4-3-5-4-6--|-2---2-4-4-3333-3-4---4-4-4-3-6-5-8--|
|-4---4---2--------2---2---2----------|-4---4---2--------2---2---2----------|
                  
Structure
riff 1 
riff 2 x2
riff 3 x4
riff 2
riff 4
riff 3 x8
riff 5 x2
riff 6 x6 |solo 
riff 7 x4 |solo
riff 8 x2

tabbed by Thibault Salles
шаблоны для dle 11.2
https://guitar1st.ru/31176-blood-song.html
Пожалуйста не удаляйте ссылку на источник!

Видео


Аппликатура распознанных аккордов:

Добавить комментарий

Оставить комментарий

Кликните на изображение чтобы обновить код, если он неразборчив