{instrum_title}

Funeral For A Friend - 10 Scene Points To The Winner Аккорды, Табы


song: 10 Scene Points To The Winner
band: Funeral For A Friend
tabbed by:funeralforafrie, and members of funeralforafriend.com
Well...this intro   verse was posted on an official site, I thought I would post
it here, then add the rest in myself...ill keep adding to it as time goes on
GUITAR ONE
Eb :----------------------|------------------------|
Bb :----------------------|------------------------|
Gb :----------------------|------------------------|
Db :----------------------|------------------------|
Ab :-----7-h-8-p-7-p5-----|-7-h-8-p-7-p5------7-p5-|
Db :0-0---------------0-0-|--------------0-0-------|
GUITAR TWO
Eb :----------------------|------------------------|
Bb :----------------------|------------------------|
Gb :----------------------|------------------------|
Db :----------------------|------------------------|
Ab :----10-h12-p10-p8-----|10-h12-p10-p8-----10-p8-|
Db :0-0---------------0-0-|--------------0-0-------|
====================================================
GUITAR ONE CONT..
Eb :----------------------|---------------------|
Bb :----------------------|---------------------|
Gb :----------------------|3-/--/5-5---5-/7-7---|
Db :----------------------|--/--/---------------|
Ab :-----7-h-8-p-7-p5-----|1-/--/3-3---3-/5-5---|
Db :0-0---------------0-0-|---------------------|
GUITAR TWO CONT..
Eb :----------------------|---------------------|
Bb :----------------------|---------------------|
Gb :----------------------|3-/--/5-5---5-/7-7---|
Db :----------------------|--/--/---------------|
Ab :----10-h12-p10-p8-----|1-/--/3-3---3-/5-5---|
Db :0-0---------------0-0-|---------------------|
Lyrics:
Ink stained fingers promise everything and nothing 
And therein lies the story 
It's no easy sentiment, a concious effort 
To save the last... 
I love you just the way you are 
So don't give up just yet 
I know it's hard, it's so hard 
To just give up 
It's easy to be the quitter 
So don't give up 
Ink stained fingers promise everything and nothing 
And therein lies the story 
It's no easy sentiment, a concious effort 
To save the last... 
I love you just the way you are 
So don't give up just yet 
I know it's hard, it's so hard 
To just give up 
It's easy to be the quitter 
So don't give up
шаблоны для dle 11.2
https://guitar1st.ru/30891-10-scene-points-to-the-winner.html
Пожалуйста не удаляйте ссылку на источник!

Видео


Аппликатура распознанных аккордов:

Добавить комментарий

Оставить комментарий

Кликните на изображение чтобы обновить код, если он неразборчив