{instrum_title}

Garbage - A Stroke Of Luck Аккорды, Табы


 intro

-22--|---|---|---|-3--|-------------------------------------------------------
-20--|---|---|---|-3--|-------------------------------------------------------
-----|---|---|---|-3--|-------------------------------------------------------
-----|---|---|---|-5--|-------------------------------------------------------
-----|---|---|---|-5--|-------------------------------------------------------
-----|---|---|---|-3--|-------------------------------------------------------
high bits in verse

-15--------|------|-----------------------------------------------------------
----14--15-|------|-----------------------------------------------------------
-----------|-12---|-----------------------------------------------------------
-----------|------|-----------------------------------------------------------
-----------|------|-----------------------------------------------------------
-----------|------|-----------------------------------------------------------
chorus gtr bit slide with trem bar

-------------------|----|-----|--------|---------|----------------------------
---3---3-----------|----|-----|--------|---------|----------------------------
-0-------0---2b3r2-|----|-0---|----5h--|----5h/--|-/////////------------------
-----3-------------|----|-----|--------|---------|----------------------------
-------------------|-x5-|-----|--------|---------|----------------------------
-------------------|----|-----|--------|---------|---------------------------- 
шаблоны для dle 11.2
https://guitar1st.ru/74437-a-stroke-of-luck.html
Пожалуйста не удаляйте ссылку на источник!

Видео


Аппликатура распознанных аккордов:

Добавить комментарий

Оставить комментарий

Кликните на изображение чтобы обновить код, если он неразборчив