{instrum_title}

Garbage - Hammering In My Head Аккорды, Табы


 INTRO/VERSE
|------------------------------|
|-------11------13----13-14-11-|
|-12-12----12------12----------|
|------------------------------|
|------------------------------|
|------------------------------|


CHORUS - Guitars tacet


BRIDGE - Guitars tacet


VERSE 2 - Same


BRIDGE 2
|--------------------------------|
|-----------------------------6--|
|---7-6-7-----7-6-7-----7-6-7----|
|-0---------0---------0----------|
|--------------------------------|
|--------------------------------|


INTERLUDE
|-22b23r22b23r22--17b18--|
|------------------------|
|------------------------|
|------------------------|
|------------------------|
|------------------------|


lead
|------------------------------|
|-------11------13----13-14-11-|
|-12-12----12------12----------|
|------------------------------|
|------------------------------|
|------------------------------|


OUTRO - Guitars tacet 
шаблоны для dle 11.2
https://guitar1st.ru/74440-hammering-in-my-head.html
Пожалуйста не удаляйте ссылку на источник!

Видео


Аппликатура распознанных аккордов:

Добавить комментарий

Оставить комментарий

Кликните на изображение чтобы обновить код, если он неразборчив