{instrum_title}

Garbage - Parade Аккорды, Табы


 intro
----------------------------------------2---2--2-2-2--------------
--------------------------3-3-2-2-2-2---2---2--2-2-2-------------
--4-4-4-4-4-4-4--2-2-2-2--2-2-2-2-2-2---4---4--2-2-2----------------
--2-2-2-2-2-2-2--2-2-2-2----------------4---4--4-4-4-------------
----------------------------------------4---4--4-4-4-------------
----------------------------------------2---2--2-2-2--------------

------------------------------------------------------------------
--3-3-2-2-2--------------10--9---------7--5--------------------
--2-2-2-2-2-----*--9--------------9-----------7------------------
---------------------7--------------7----------------------------
-----------------------------------------------------------------
------------------------------------------------------------------
verse
------------------------------------------------------------------
-----------------------------------------------------------------
---------6-x8---------------------6x8--5x11-------------------------
--6x5----4------6-x5--11x7--6x5---4----5-----------------------------
--4------4------7-----9-----0-----0----3-------------------------
--4------4------7-----7-----0-----0----3---------------------------

chorus(with intro sort of tune)

------------------------------------------------------------------------
---------------------------------------------------------------------
---------------------------repeat------------------------------
-2-x8---7-x8--------7-x8----------------------------------------------
-0------5-----5x8---5------------------------------------------------
-0------------3--------------------------------------------------------- 
шаблоны для dle 11.2
https://guitar1st.ru/74445-parade.html
Пожалуйста не удаляйте ссылку на источник!

Видео


Аппликатура распознанных аккордов:

Добавить комментарий

Оставить комментарий

Кликните на изображение чтобы обновить код, если он неразборчив