{instrum_title}

Garbage - Untouchable Аккорды, Табы


 INTRO
e|---------------------------------------------------------------------------|
B|-2-------2-0---------0-----------------------------------------------------|
G|---2---2-----1-----1---2-------2-1-----------------------------------------|
D|-----4---------3-3-------4---4-----3---------------------------------------|
A|---------------------------4---------4-------------------------------------|
E|---------------------------------------------------------------------------|

CHORUS
e|---------------------------------------------------------------------------|
B|---------------------------------------------------------------------------|
G|---------------------------------------------------------------------------|
D|---------------------------------------------------------------------------|
A|---------0-0-2-------------------------------------------------------------|
E|-2-2-4-4-------------------------------------------------------------------|

Chords(CHORUS)
F#, F#, G#, G#, A, A, B

e|---------------------------------------------------------------------------|
B|---------------------------------------------------------------------------|
G|-----------2--2-4----------------------------------------------------------|
D|-4--4-6--6-2--2-4----------------------------------------------------------|
A|-4--4-6--6-0--0-2----------------------------------------------------------|
E|-2--2-4--4-----------------------------------------------------------------| 
шаблоны для dle 11.2
https://guitar1st.ru/74451-untouchable.html
Пожалуйста не удаляйте ссылку на источник!

Видео


Аппликатура распознанных аккордов:

Добавить комментарий

Оставить комментарий

Кликните на изображение чтобы обновить код, если он неразборчив