{instrum_title}

I.F.K. - Бомбоубежище Аккорды, Табы


Послушайте внимательно песню!.. А то у меня тут непонятно слишком...
ИНТРО: "клин"
-----------------------------|
-----------------------------|
--1-------------1-0-1-0------|
|---------2-------------2----------------|    X  4
--------2--------------------|
|-0-------------0------------------------|
РИФФ 1: "дисторшн"
--------|
--------|
--------|
--------|  X 7
|-3-3-3-3/4/3-------|
--------|
РИФФ 2: "дисторшн"
--------|
--------|
--------|
|-5-5-5-5/6/5-------|  X 6
|-3-3-3-3/4/3-------|
--------|
РИФФ 3: "дисторшн" 
CRASH!!!
---------------------|
---------------------|
---------------------|
|-2-2--5-4-5-4-5-4-5-5-----------|  x 8
|-2-2--3-2-3-2-3-2-3-3-----------|
|-0-0----------------------------|
РИФФ 3:
Иди на мой стон, приди и помоги мне.
Никогда мой бог не мог понять,
Как страшно любить и ненавидеть жизнь,
Которая гниет и разрушает.
Он сжигает себя в эфедриновый полдень.
Многотонные стены бетона.
Страх — религия слабых,
Черное мясо готовится из них.
РИФФ 1:
День -- Ночь!..
РИФФ 2:
День -- Ночь!..
|-------|
|-------|
|-------|
|-2-2---|  Эвакуация!..
|-2-2---|
|-0-0---|
|-------|
|-------|
|-------|
|-2-2---|  Пора спускаться!!!
|-2-2---|
|-0-0---|

РИФФ 4 (припев): "дисторшн"
------------------------------------------------------------|
------------------------------------------------------------|
------------------------------------------------------------|
|-2----5-4-5------2----5-4-5------2----5-4-5---2-2--5-5-----------------|
|-2----3-2-3------2----3-2-3------2----3-2-3---2-2--3-3-----------------|
|-0---------------0---------------0------------0-0----------------------|
Это пламя плавит. 
Я плевать хотел на вашу боль, плевать.
Сквозь огонь иди ко мне. 
Я знаю, мой бог, ты придешь, чтобы забрать меня.
Только слабым — слава
Нужна, чтобы сделать этот шаг вперед.
Самоубийство — это бизнес не для всех.
Em  C
Погибшие в тюрьмах и на баррикадах -
В этом костре они стали дровами.
Когда же наступит свободное завтра?
Я ждал 2000 лет…
РИФФ 3: X 4
РИФФ 3: 
Да, я всегда разбитыми губами целовал твои руки.
Прикован к столбу,
Я хотел, чтобы пламя слизало с меня мою плоть.
Я мечтал, что умру,
И библейская тьма опустилась на землю.
Только полуослепшие семьи
Спят в уюте колодцев.
Солнце сюда никогда не вернется.
РИФФ 1:
День -- Ночь!..
РИФФ 2:
День -- Ночь!..
-------|
-------|
-------|
|-2-2------2-2-----|  
|-2-2------2-2-----|
|-0-0------0-0-----|
РИФФ 4:
Это пламя плавит. 
Я плевать хотел на вашу боль, плевать.
Сквозь огонь иди ко мне. 
Я знаю, мой бог, ты придешь, чтобы забрать меня.
Только слабым — слава
Нужна, чтобы сделать этот шаг вперед.
Самоубийство — это выход не для всех.
Em
Мама в Пентагоне надевает чулки,
Папа в небоскребе отвечает на звонки.
Западный человек, времени больше нет.
Реквием по душе — бомбоубежище.
Бумщакакурмамадумзерагатурматакумхуй
Пататачумалямасукатакакатаратамапатама
--|
--|
--|
|-4-4-5-5-----|   X 7
|-2-2-3-3-----|
--|
Мы оба сдохнем, но ты будешь первым!!!
РИФФ 4:
Это пламя плавит. 
Я плевать хотел на вашу боль, плевать.
Сквозь огонь иди ко мне. 
Я знаю, мой бог, ты придешь, чтобы забрать меня.
На аэропланах
Молись, это твой последний шанс!
Они летят сюда, и спрятаться негде!
Негде!
Тревога, Осама!
-------------------------------------
Говно подбор? Сделай лучше! Я буду только рад!..
С уважением, Невозможность.
шаблоны для dle 11.2
https://guitar1st.ru/29693-bomboubezhische.html
Пожалуйста не удаляйте ссылку на источник!

Видео


Аппликатура распознанных аккордов:

Добавить комментарий

Оставить комментарий

Кликните на изображение чтобы обновить код, если он неразборчив