{instrum_title}

Joe Satriani - Chords Of Life Аккорды, Табы


Artist: Joe Satriani
Song  : Chords Of Life
Album : Strange Beautiful Music

This album hasn't been released yet.
For more information mail me at icefan_romania@hotmail.com

E|----------------------------|--------------------------|
B|----------------------------|----------10--11----------|
G|3--3--3/5--7------5--5/7-7--|--12--12----------12------|
D|---------------8------------|--------------------------|
A|----------------------------|--------------------------|
E|----------------------------|--------------------------|

E|-------------------------------------|--------------10----------|
B|-------------------------------------|----------10--------------|
G|3--3--3/5--5/7-7-----3--3/5--5/7-7---|--12--12----------12------|
D|-------------------------------------|--------------------------|
A|-------------------------------------|--------------------------|
E|-------------------------------------|--------------------------|

E|-------------8------------9----|---10------------11--------------14|
B|----------8-----8--------------|-------------7---------------10----|
G|---8--10-----------10--9-------|--------7h8-----------10h12--------|
D|-------------------------------|-----------------------------------|
A|-------------------------------|-----------------------------------|
E|-------------------------------|-----------------------------------|

E|---------------/22-----------|
B|--14--15--17-----------------|
G|-----------------------------|
D|-----------------------------|
A|-----------------------------|
E|-----------------------------|

guitar2 :
E|-10--10----8---6--6----5--3--3----5--6--6----8---------|
B|-11--11----8---6--6----6--4--4----6--6--6----8---------|
G|-12--12----10--8--8----7--5--5----7--8--8----10--------|  X3times
D|-12--12----10--8--8----7--5--5----7--8--8----10--------|
A|-10--10----8---6--6----5--3--3----5--6--6----8---------|
E|-10--10----8---6--6----5--3--3----5--6--6----8---------|

meanwhile the solo guitar doese this:
	@2nd time			@3rd time
E|-----------------------------|----------------------------|
B|---13^(1T)--11--13-----------|--13^(1T)--11--13------13---|
G|--------------------12--10---|------------------12--------|
D|-----------------------------|----------------------------|
A|-----------------------------|----------------------------|
E|-----------------------------|----------------------------|

E|-----------------------------------------------------------|
B|--13^(1T)--11--13------13----------------------------------|
G|------------------12---------------------------------------|
D|-----------------------------------------------------------|
A|-----------------------------------improv.{-10--8-}--------|
E|-----------------------------------------------------------|.......
I didn't have the time to figure out all the song, but I will.....
шаблоны для dle 11.2
https://guitar1st.ru/23973-chords-of-life.html
Пожалуйста не удаляйте ссылку на источник!

Видео


Аппликатура распознанных аккордов:

Добавить комментарий

Оставить комментарий

Кликните на изображение чтобы обновить код, если он неразборчив