{instrum_title}

Joe Satriani - The Forgotten (Part One) Аккорды, Табы


Guitar
Tempo - 130
                                           
E-----------------|
B-----------------|
G||*--12----12----12-------12----12-------|
D||*--10----10----10-------10----10-------|
A||------15----15----15-15----15----15-15-|
E-----------------|

                                                                              
-----------------------------------------------------------------|
-----------------------------------------------------------------|
--13----13----13-------13----13-------|--12----12----12-------12----12-------|
-----10----10----10-10----10----10-10-|-----10----10----10-10----10----10-10-|
--13----13----13-------13----13-------|--11----11----11-------11----11-------|
-----------------------------------------------------------------|

                                       3x
---------------------------------------||
---------------------------------------||
--10----10----10-------10----10-------*||
-----10----10----10-10----10----10-10-*||
--10----10----10-------10----10--------||
---------------------------------------||

                                        3x                            
---------------------------------------------|
----------------------------------------||-----4---4---4-4---4---4-4-|
*--------------------------------------*||*--5-5-5-5-5-5-5-5-5-5-5-5-|
*--10-10-10-10-10-10-10-10-10-10-10-10-*||*--------------------------|
---------------------------------------------|
---8-----8-----8--------8-----8---------||---4---4---4-----4---4-----|

                           2x                              
---------------------------------||
----4---4---4-4---4---4-4--------||
--7-5-7-5-7-5-5-7-5-7-5-5-*||*--5-5-5-5-5-5-5-5-5-5-5-5-*||
--------------------------*||*--------------------------*||
---------------------------||---3---3---3-----3---3------||
--6---6---6-----6---6------------||

                                                                               
------------------------------------------------------------------|
------------------------------------------------------------------|
*--12----12----12-------12----12-------|--13----13----13-------13----13-------|
*--10----10----10-------10----10-------|-----10----10----10-10----10----10-10-|
------15----15----15-15----15----15-15-|--13----13----13-------13----13-------|
------------------------------------------------------------------|

                                                                              3x
------------------------------------------------------------------||
------------------------------------------------------------------||
--12----12----12-------12----12-------|--10----10----10-------10----10-------*||
-----10----10----10-10----10----10-10-|-----10----10----10-10----10----10-10-*||
--11----11----11-------11----11-------|--10----10----10-------10----10--------||
------------------------------------------------------------------||

                                        3x                  
----------------------------------------|-----||
----------------------------------------|-----||
*--------------------------------------*|-----||
*--10-10-10-10-10-10-10-10-10-10-10-10-*||--10------------||
----------------------------------------|-----||
---8-----8-----8--------8-----8---------||--8-------------||
шаблоны для dle 11.2
https://guitar1st.ru/23985-the-forgotten-part-one.html
Пожалуйста не удаляйте ссылку на источник!

Видео


Аппликатура распознанных аккордов:

Добавить комментарий

Оставить комментарий

Кликните на изображение чтобы обновить код, если он неразборчив