{instrum_title}

Joe Satriani - I F Аккорды, Табы


 --------------------------------------|---------------------------
--------------------------------------|---------------------------
--------------------------------------|---------------------------
5/7--7---7-----5/7--7--7------------- |--5/7--7--7-----5/7--7--7--
5/7--7---7-----5/7--7--7--------------|--5/7--7--7-----5/7--7--7--
3/5--5---5-----3/5--5--5--------------|--3/5--5--5-----3/5--5--5--





|------------------------------------|--------------------------------------

|------------------------------------|--------------------------------------

|------------------------------------|--------------------------------------

|--5/7--7--7-----5/7--7--7-----------|--5/7--7--7----5/7--7--7-----5/7--7--7

|--5/7--7--7-----5/7--7--7-----------|--5/7--7--7----5/7--7--7-----5/7--7--7

|--3/5--5--5-----3/5--5--5-----------|--3/5--5--5----3/5--5--5-----3/5--5--5






|-----------------------|
|-----------------------|
|---------17-----19---17|
|--19-------------------|
|-----------------------|
|-----------------------|



1 1/2

-------------------------------------------|-------------------------------
------20-----------------------------------|-----19^----19~~~--------------
--19^--------------------------------------|----------------------19-------
-------------------------------------------|-------------------------------
-------------------------------------------|-------------------------------
-------------------------------------------|-------------------------------





--------------|---------------------------------------|---------------------
----
--------------|---------------------------------------|---------------------
----
17-----19~~~--|--(19)-----17--------------------------|---------17-----19---
----
--------------|---------------19--17-----19-----------|--19~~~--------------
----
--------------|---------------------------------------|---------------------
----
--------------|---------------------------------------|---------------------
----



1 1 p1/2

----|------17-----------------|--------------------------------|------------
----
----|-------------------------|--20^----(20)~~~-----19-----19^'|--(19)------
----
17--|--19^--------------------|--------------------------------|--------19--
----
----|-------------------------|--------------------------------|------------
----
----|-------------------------|--------------------------------|------------
----
----|-------------------------|--------------------------------|------------
----



1

-------------------------|--------22^-------20---------------20-------------
----
-------------------------|-------------------------22~~~~~~-----------------
----
17-----------------------|--------------------------------------------------
----
----19--17--19-----------|--------------------------------------------------
----
-------------------------|--------------------------------------------------
----
-------------------------|--------------------------------------------------
----



1

|--22^----20--22~~~~~~--|--22^-------20---------------20-----------|--22^-22
----
|-----------------------|-------------------22~~~~~~---------------|--------
----
|-----------------------|------------------------------------------|--------
----
|-----------------------|------------------------------------------|--------
----
|-----------------------|------------------------------------------|--------
----
|-----------------------|------------------------------------------|--------
----



1

20--22--20------------------------|-------------------------------|---------
----
------------22--22~~~--(22)---⁄---|-------------------------------|---------
----
----------------------------------|---------17--------19--17--19^-|--(19)---
----
----------------------------------|--19~~~------------------------|---------
----
----------------------------------|-------------------------------|---------
----
----------------------------------|-------------------------------|---------
----





-------------------------------------------------|--------------------------
----
20-----------------------------------------------|--------17--20--17--20----
----
-------------------------------------------------|--------------------------
----
-------------------------------------------------|--------------------------
----
-------------------------------------------------|--------------------------
----
-------------------------------------------------|--------------------------
----



1 1

-----------------------|-----------------------------------20^||--(20)--(20)
----
20--17--20-----17--20^-|-----(20)--20^----(20)~~~~~20-'-17----||------------
----
-----------------------|--------------------------------------||------------
----
-----------------------|--------------------------------------||------------
----
-----------------------|--------------------------------------||------------
----
-----------------------|--------------------------------------||------------
----



p1/2 1 1

-~~~--20--17------------------------------------|---------------------------
----
--------------20--17----------------------------|---------------------------
----
----------------------19^'(19)---p17-----19p17--|--19^----19^---------------
----
------------------------------------------------|---------------------------
----
------------------------------------------------|---------------------------
----
------------------------------------------------|---------------------------
----



1/2

----------------|--------------------------------------------|--------------
----
----------------|--------------------------------------------|--------------
----
----17--19--19^-|--(19)----'---17--19~~~~----17--------------|--------------
----
19--------------|--------------------------------19--17--19--|--(19)--------
----
----------------|--------------------------------------------|--------------
----
----------------|--------------------------------------------|--------------
----



1

-----------------------------17--20^-|--(20)--(20)---~~~~~~--20-----17------
----
-------------------------17----------|----------------------------------20--
----
-----------------17--19--------------|--------------------------------------
----
---------17--19----------------------|--------------------------------------
----
-------------------------------------|--------------------------------------
----
-------------------------------------|--------------------------------------
----



p1 1/2

17----------|------------17-----------------------------------------17--20--
----
----17--20--|--20^~~~~~~-----17--20-----------------------------17----------
----
------------|------------------------19^-'(19)--17----------19--------------
----
------------|---------------------------------------------------------------
----
------------|---------------------------------------------------------------
----
------------|---------------------------------------------------------------
----



1 1

|--(20)^----------(20)---~~~~~~~~~'------------------------------|----------
----
|-----------------------------------------20^----------20~~~-----|--(20)----
----
|----------------------------------------------------------------|----------
----
|----------------------------------------------------------------|----------
----
|----------------------------------------------------------------|----------
----
|----------------------------------------------------------------|----------
----



1

--------17----------------------------17--20^-|--(20)--------20--------17---
----
~~~---------17--------------------17----------|-----------------------------
----
----------------19--------17--19--------------|-----------------------------
----
----------------------------------------------|-----------------------------
----
----------------------------------------------|-----------------------------
----
----------------------------------------------|-----------------------------
----



1/2 p1

------------------------|---------------------------------||---10-----10--10
----
20--------20^-------20^-|--(20)---~~~~~~------------------||----------------
----
------------------------|---------------------------------||*--7------7---10
----
------------------------|---------------------------------||*-------------3-
----
------------------------|---------------------------------||---5------5-----
----
------------------------|-----------------x⁄x⁄------------||----------------
----





---10--10-----10--10-----10--10-----10--10--|--10--10--10-----10--10--10--10
----
-------8------8---9------9---8------8-------|-------------------------------
----
---10-----------------------------------10--|--10--10--7------7-------------
----
---3---5------5---6------6---5------5---3---|--3---3--------------10--10--9-
----
--------------------------------------------|----------5------5---3---3---2-
----
--------------------------------------------|-------------------------------
----



1 1 1 1/2 1 1/2

----------||----------------12------15--(15)^----------15^----15--|--(15)---
----
----------||--15^----15^--------12--------------------------------|---------
----
---------*||------------------------------------------------------|---------
----
---------*||------------------------------------------------------|---------
----
----------||------------------------------------------------------|---------
----
----------||------------------------------------------------------|---------
----


bkwds.
1 rake----------|

12------12------15-----12-----12-----------------12--------12--------|------
----
----15^-----12------12h14---------12----------12h14-----12h14--------|--12--
----
--------------------------------------12-----------------------------|------
----
------------------------------------------14-------------------------|------
----
---------------------------------------------------------------------|------
----
---------------------------------------------------------------------|------
----





--------12-----------------12--------------------12--------------------12---
----
h14---------12----------12h14-----12----------12h14-----12----------12h14---
----
----------------12--------------------12--------------------12--------------
----
--------------------14--------------------14--------------------14----------
----
----------------------------------------------------------------------------
----
----------------------------------------------------------------------------
----



1
---|12/15--15-----------------------12------------------------------------|-
----
---|12/15--15-----------------------12h14----------12---------------------|-
----
---|------------14^-(14)---p12--14---------12--14--12---------------------|-
----
---|---------------------------------------------------14--11--14--11~~~--|-
----
---|----------------------------------------------------------------------|-
----
---|----------------------------------------------------------------------|-
----



1 1

-------------------------------------------------------|--------------------
----
-------------------------------------------------------|--------------------
----
------12^------------12~~~---------12--14^-14--14--14--|--14--14--14--14--14
---'
(11)---------14--12------------14----------------------|--------------------
----
-------------------------------------------------------|--------------------
----
-------------------------------------------------------|--------------------
----



1 1 1/2

----------------------------12----------12------15-----|------12------------
----
------------------------12------12--15^-----12---------|--14^-----12--14----
----
(14)---p12------12--14^--------------------------------|------------------15
----
------------14-----------------------------------------|--------------------
----
-------------------------------------------------------|--------------------
----
-------------------------------------------------------|--------------------
----



1 p1/2

------------12-----------------------------------|--------------------------
----
12------12------12--15---------------------------|--------------------------
----
----14^-----------------14^-'(14)p12-----14------|--12------12--------------
----
-------------------------------------14------14--|------14--14p12-----------
----
-------------------------------------------------|-----------------14--12⁄10
----
-------------------------------------------------|--------------------------
----




1/2 1 1 1/2
-----------------------------------------||--15^-------15^-------15^--------
----
------------------------------(0)--------||---------------------------------
----
-----------------------------------------||---------------------------------
----
---------------12--12--12~~~-------------||---------------------------------
----
12--10--12/14----------------------------||---------------------------------
----
-----------------------------------------||---------------------------------
----



1 1/2 1 1/2

15^------'(15)---p(13)------|--15--13---------------------------------------
----
------------------------15--|-------------15^----------15p13------15--13----
----
----------------------------|---------------------------------14------------
----
----------------------------|-----------------------------------------------
----
----------------------------|-----------------------------------------------
----
----------------------------|-----------------------------------------------
----


1
2 p1/2s--^ 1 1/2

--------|----------10--13^-------13^-------13^----13~~~--10------|--10------
----
~~~~~~--|--10--12--------------------------------------------12--|------12--
----
--------|--------------------------------------------------------|----------
----
--------|--------------------------------------------------------|----------
----
--------|--------------------------------------------------------|----------
----
--------|--------------------------------------------------------|----------
----



p1 1 1 1

13------10--10--10--15^----'--15^'(15)---p13----------------|--20^-------20^
---'
----12----------------------------------------15p13--15-----|---------------
----
------------------------------------------------------------|---------------
----
------------------------------------------------------------|---------------
----
------------------------------------------------------------|---------------
----
------------------------------------------------------------|---------------
----



1 1/2 1

------------(20)^⁄--------------10------13------10--|------------------10---
----
------------------------(0)--12------10------12^----|--10--13------10-------
----
----------------------------------------------------|----------12^----------
----
----------------------------------------------------|-----------------------
----
----------------------------------------------------|-----------------------
----
----------------------------------------------------|-----------------------
----



1 1

13------------------------------------------|-------------------------------
----
13------------------------------------------|-------------------------------
----
-------12^'(12)p10--12--10------10--12^-12--|--12--12--12--12--12'(12)------
----
----------------------------12--------------|-------------------------------
----
--------------------------------------------|-------------------------------
----
--------------------------------------------|-------------------------------
----



1 1

--------------------------------------------------------|-------------------
----
--------------------------------------------------------|-------------------
----
p10------12--10--12--10h12-----12^'(12)p10------10--12^-|-'(12)-----10--12--
----
-----12-------------------------------------12--10------|-----------10--12--
----
--------------------------------------------------------|-------------------
----
--------------------------------------------------------|-------------------
----


bkwds.
rake--------|
----x-----------------------------------------||----------------------------
----
12-----x--------------------------------------||----------------------------
----
12--------x------10---------------------------||----------------------------
----
-------------12-------------------------------||----------------------------
----
---------------------12--10⁄8-----10--10/x⁄---||--5/7--7--7-----5/7--7------
----
----------------------------------------------||--3/5--5--5-----3/5--5------
----




------------------------------------------------|---------------------------
----
------x-----x-----x-----x-----7--5--x-----x-----|---------------------------
----
------------------------------7--5--------------|---------------------------
----
------------------------------------------------|---------------------------
----
7-----------------------------------------------|--5/7--7--7-----5/7--7--7--
----
5-----------------------------------------------|--3/5--5--5-----3/5--5--5--
----





---------------|--------------------------------------|---------------------
----
---------------|--------------------------------------|---------------------
----
---------------|--------------------------------------|---------------------
----
---------------|--------------------------------------|---------------------
----
---------------|--------------------------------------|---------------------
----
---------------|--------------------------------------|---------------------
----



1

-------------------------||------------------------------|------------------
----
-------------------------||------------------------------|------20----------
----
-------------------------||------------17--------19--17--|--19^-------------
----
-------------------------||--19~~~-----------------------|------------------
----
-------------------------||------------------------------|------------------
----
-------------------/x⁄---||------------------------------|------------------
----



p1

---------------|------------------------------------------------------------
----
---------------|------------------------------------------------------------
----
---------------|--------------19^'(19)---p17--19--------------19--17--------
----
---------------|------------------------------------------------------19--19
----
---------------|------------------------------------------------------------
----
---------------|------------------------------------------------------------
----





-----|--------------------------------------|-------------------------------
----
-----|--------------------------------------|-------------------------------
----
-----|--------------------------------------|---------------17--------19----
----
~~~--|--(19)--------------------------------|--------19~~~------------------
----
-----|--------------------------------------|-------------------------------
----
-----|--------------------------------------|-------------------------------
----



p1 1

-------|--------17---------------------------|------------------------------
----
-------|---------------------------------19^-|--(19)--------------19~~~-----
----
---19^-|--(19)-------------------------------|---------------------------19-
----
-------|-------------------------------------|------------------------------
----
-------|-------------------------------------|------------------------------
----
-------|-------------------------------------|------------------------------
----



1 1

-----------------------------|-------------------------------|--22^-------20
----
-----------------------------|-------------------------------|--------------
----
17-----19^----19--17--19~~~--|--(19)---~~~~~~--(19)---⁄------|--------------
----
-----------------------------|-------------------------------|--------------
----
-----------------------------|-------------------------------|--------------
----
-----------------------------|-------------------------------|--------------
----



1 1

-------20~~~--|--22^----20--22~~~~~~--|--------22^----20---------20~~~--|---
----
22~~~---------|-----------------------|-------------------22~~~---------|---
----
--------------|-----------------------|---------------------------------|---
----
--------------|-----------------------|---------------------------------|---
----
--------------|-----------------------|---------------------------------|---
----
--------------|-----------------------|---------------------------------|---
----



1 1

20^-------(20)---~~~~~~-----20--17------17~~~--|--(17)--------22^-------20--
----
------------------------------------20---------|----------------------------
----
-----------------------------------------------|----------------------------
----
-----------------------------------------------|----------------------------
----
-----------------------------------------------|----------------------------
----
-----------------------------------------------|----------------------------
----



1 1

~~~------20-----------|-----22^-22--22--22-'20--22~~~--20--------|--22^-----
----
-----22---------------|------------------------------------------|----------
----
----------------------|------------------------------------------|----------
----
----------------------|------------------------------------------|----------
----
----------------------|------------------------------------------|----------
----
----------------------|------------------------------------------|----------
----



1 1/2

20------20-----20--17--|----------------------------------------------------
----
----22-----------------|--20--17-----20--17------20---p17------17-----------
----
-----------------------|---------------------19------------19^-----19^'(19)-
----
-----------------------|----------------------------------------------------
----
-----------------------|----------------------------------------------------
----
-----------------------|----------------------------------------------------
----



1/2

-------------------------------------||-------------------------------------
----
-------------------------------------||-------------------------------------
----
-p17------19p17------19--17--19--19^-||--(19)--------19~~~--17~~~--19--17---
----
------19---------19------------------||-------------------------------------
----
-------------------------------------||-------------------------------------
----
-------------------------------------||-------------------------------------
----


1 1 P.M 1/2

----------------|--------------------------------------------------|--------
----
----------------|--------------------------------------------------|--------
----
19--19--17--19^-|--(19)--19^-------------------19----------17--19^-|--(19)--
----
----------------|----------------------------------17--19----------|--------
----
----------------|--------------------------------------------------|--------
----
----------------|--------------------------------------------------|--------
----



P.M--|

---------------------------------------------|------------------------------
----
---------------------------------------------|------------------------------
----
------19~~~--17~~~--19p17-----17-------------|-----------x--x--19--17-----17
----
----------------------------------19--19~~~--|--(19)~~~---------------------
----
---------------------------------------------|------------------------------
----
---------------------------------------------|------------------------------
----



1/2 1

------------------------|---------------------------------------------------
----
------------------------|---------------------------------------------------
----
----17--19--17--19--19^-|--(19)--~~~--19--'--17-----19--17-----19--17--19^--
---
19----------------------|---------------------------------------------------
----
------------------------|---------------------------------------------------
----
------------------------|---------------------------------------------------
----



1 1

|-----------------------------------------------17--20^-|--(20)--(20)~~~----
----
|---------------------------------------17--20----------|-------------------
----
|--(19)--19^--------------------17--19------------------|-------------------
----
|---------------------------19--------------------------|-------------------
----
|-------------------------------------------------------|-------------------
----
|-------------------------------------------------------|-------------------
----



1 1/4 1

~~~--20^----------20^-17--|--(17)--------17--17--17--17--17------17--20^-|--
----
--------------------------|----------------------------------20----------|--
----
--------------------------|----------------------------------------------|--
----
--------------------------|----------------------------------------------|--
----
--------------------------|----------------------------------------------|--
----
--------------------------|----------------------------------------------|--
----



1 1/4

(20)--(20)---~~~~~~--20^-------20^----17~~~--|--(17)---~~~--17------17------
----
---------------------------------------------|------------------20------20--
----
---------------------------------------------|------------------------------
----
---------------------------------------------|------------------------------
----
---------------------------------------------|------------------------------
----
---------------------------------------------|------------------------------
----



p1/2 1 1

------------------------------------17--20^-|--(20)--(20)---~~~~~~--20^-----
----
20------------------------------17----------|-------------------------------
----
----19^'(19)---p17--19--17--19--------------|-------------------------------
----
--------------------------------------------|-------------------------------
----
--------------------------------------------|-------------------------------
----
--------------------------------------------|-------------------------------
----





---20~~~--17~~~--|--(17)---~~~--17~~~--17⁄|-----------------|---------------
----
-----------------|------------------------|-----------------|---------------
----
-----------------|------------------------|-----------------|---------------
----
-----------------|------------------------|-----------------|---------------
----
-----------------|------------------------|-----------------|---------------
----
-----------------|------------------------|-----------------|--3-----5--3---
----


A.H
1

------------------------------|------------------------------|--------------
----
------------------------------|------------------------------|--------------
----
------------------------------|--------------------5p2p0-----|--------5p2p0-
----
------------------------------|---------------------------4--|--------------
----
------------3--5-----3^-------|--3~~~~~~---------------------|--------------
----
5-----3--5--------------------|------------------------------|--------------
----
semi

harm
1/4

--------------------------------||------------------------------------------
----
--------------------------------||---------------3--5-----------------------
----
------5p2p0--------5p2p0--------||--5p2p0--4--4--------5^-------------------
----
4------------4------------4-----||------------------------------------------
----
--------------------------------||------------------------------------------
----
--------------------------------||------------------------------------------
----





-------------|-------------------------------------------|------------------
----
-------------|-------------------------------------------|------------------
----
5p2p0-----0--|-------------------------------------------|-----------------5
----
-------4-----|-----4p2p0--0--0---------------------------|------------------
----
-------------|------------------3p0-----0--3p0-----------|------------------
----
-------------|-----------------------3-------------------|------------------
----



p1/2 1

--------------------------|-------------------------------------------------
----
--------------5-----------|-------------------------------------------------
----
--------------5-----------|--------7^----'---^-------7p5-----7--5-----5~~~--
----
7--(7)~~~~~~--------------|-------------------------------7--------7--------
----
--------------------------|-------------------------------------------------
----
--------------------------|-------------------------------------------------
----



1/2 1 1/2

------5-----|--------------------5------------------------------------------
----
------5--7--|-----------------5-----5h8p5--------8--------------------------
----
------------|--------------7^--------------7^-5--8--7^'(7)p5-----7p5-----5--
----
------------|-------------------------------------------------7-------7-----
----
------------|---------------------------------------------------------------
----
------------|---------------------------------------------------------------
----



1/2 1 1/2

-------------------------------------------------|--------------------------
----
-------------------------------------------------|--------------------------
----
-------------------------------------------------|--------------------------
----
7p5-----5----------------------------------------|--------------------------
----
-----7-----7--5h7p5⁄3--5--3----------------------|--------5^-0--5^-------5--
----
-----------------------------5p3-----------------|--------------------------
----





---------------------------|---------------------------------------------|--
----
---------------------------|---------------------------------------------|--
----
---------------------------|-----0--0-----0-----0-----0--0---------------|--
----
---------------------------|--4--------4-----4-----4---------------------|--
----
3--------5-----------------|--------------------------------3p0--0--3p0--|--
----
---------------------------|---------------------------------------------|--
----



1 1 1

--------------------------------------------------5--|--(5)-----5--5--------
----
5--------7--5-----x--5-------------------------5-----|----------5--5--------
----
5--------7--5-----x--5--------7^-------(7)~~~--------|-------7^----------7^-
----
-----------------------------------------------------|----------------------
----
-----------------------------------------------------|----------------------
----
-----------------------------------------------------|----------------------
----



1 1/2 1/2 1/4
p1
-----------------------------|--5--5--8--------5--------8^-5-----5--5--8----
----
-----------5-----5-----5~~~--|-----5--8-----5--5--------------8^----5--8----
----
(7)~~~~~~--------------7^----|-----------7^-------------------------------7^
---'
-----------------------------|----------------------------------------------
----
-----------------------------|----------------------------------------------
----
-----------------------------|----------------------------------------------
----



1/4 1/4 p1/2
1s--------------
----------|-----------------------------------------------|-----------------
----
----------|--7-----------------------------5^-------------|-----------------
----
(7)p5-----|--7-----5^----------------------5^----7-----7^-|-----7^----7-----
----
-------7--|-----7-----7--5--7-----7~~~~~~-----------------|-----------------
----
----------|-----------------------------------------------|-----------------
----
----------|-----------------------------------------------|-----------------
----


2
------^ 1/2 1/2

-------------------------------------|--------------------------------------
----
-------------------------------------|--------------------------------------
----
7-----7-----(7)p5-----7-----5~~~~~~--|--7--5-----7^-5-----7--5-----5--7p5^--
---'
-------------------7-----------------|--------------------------7-----------
----
-------------------------------------|--------------------------------------
----
-------------------------------------|--------------------------------------
----



1/2

--------------|----------------------------------------------------|--------
----
--------------|----------------------------------------------------|--------
----
(5)-----5-----|-------------------------5--------------7--5--x--x--|--5-----
----
-----7-----6^-|--(6)~~~--7--6--6-----7-----------7--x--------------|--5-----
----
--------------|----------------------------------------------------|--------
----
--------------|----------------------------------------------------|--------
----


1
1/2s----^ 1 1

--------------------------------------------------|-------------------------
----
--------------------------------------------------|-------------------------
----
---5----------------------------------------------|-------------------------
----
---5----------------------------------------------|-------------------------
----
7--------(0)--5^-------------5^-------5^'(5)p3p0--|--5p3p0--0--------0--3--5
----
--------------------------------------------------|-------------------------
----



p1/2 1/2

---------------------|--------------------------------------------|---------
----
---------------------|--------------------------------------------|---------
----
---------------------|--------------------------------------------|---------
----
---------------------|--------------------------------------------|------7--
----
3p0--3p0--5--3p0-----|-----5--3p0--0--0--0--3p0--5--5^-5p0/9--(9)^|---------
----
---------------------|--------------------------------------------|---------
----





-----------------------------------------|--------------------0-------------
----
---------------------------------10--10--|-----10--10-----10----------------
----
---------------------------------12--12--|-----12--12-----12----------14----
----
---10--7--------7------------------------|-----------------------(0)--------
----
----------------------9/-----------------|----------------------------------
----
-----------------------------------------|----------------------------------
----



1 1 1

------------------------|---------------------------------------------------
----
------------------------|--20--------20--20--------------------20-----20--20
----
~~~~~~--------19^-------|--19^-----------19^-------------------19-----19--19
----
------------------------|---------------------------------------------------
----
------------------------|---------------------------------------------------
----
------------------------|---------------------------------------------------
----



1/4 1

-----------------------|-------------------------------------------20^------
----
20--20--20-------------|--19------------------------------------------------
----
19--19--19-----17------|--19--17----------------17^-------------------------
----
-------------------19--|----------19--19~~~~~~------------------------------
----
-----------------------|----------------------------------------------------
----
-----------------------|----------------------------------------------------
----



1 1/4 1/2 1

---20^-|--20----------------------------8^-5-----5---------------------||---
----
-------|--------------------------------------8^----5--8---------------||---
----
-------|------------------x⁄------------------------------7^'(7)p5-----||---
----
-------|------------------------------------------------------------7--||---
----
-------|---------------------------------------------------------------||---
----
-------|---------------------------------------------------------------||---
----





----------------------------------------------------------------------------
----
----------------------------------------------------------------------------
----
----------------------------------------------------------------------------
----
----------------------------------------------------------------------------
----
----------------------------------------------------------------------------
----
----------------------------------------------------------------------------
---- 
шаблоны для dle 11.2
https://guitar1st.ru/75096-i-f.html
Пожалуйста не удаляйте ссылку на источник!

Видео


Аппликатура распознанных аккордов:

Добавить комментарий

Оставить комментарий

Кликните на изображение чтобы обновить код, если он неразборчив