{instrum_title}

Joe Satriani - The Forgotten Part Аккорды, Табы


 The forgotten (part 1)

Guitar

E||---------------------------------------|
B||---------------------------------------|
G||*--12----12----12-------12----12-------|
D||*--10----10----10-------10----10-------|
A||------15----15----15-15----15----15-15-|
E||---------------------------------------|

--------------------------------------|--------------------------------------|
--------------------------------------|--------------------------------------|
--13----13----13-------13----13-------|--12----12----12-------12----12-------|
--------------------------------------|--------------------------------------|
--13-15-13-15-13-15-15-13-15-13-15-15-|--11-15-11-15-11-15-15-11-15-11-15-15-|
--------------------------------------|--------------------------------------|

3x
---------------------------------------||
---------------------------------------||
--10----10----10-------10----10-------*||
--------------------------------------*||
--10-15-10-15-10-15-15-10-15-10-15-15--||
---------------------------------------||

3x
----------------------------------------||----------------------------------|
----------------------------------------||----------------------------------|
*--------------------------------------*||*--5----5----5-------5----5-------|
*--10----10----10-------10----10-------*||*----13---13---13-13---13---13-13-|
------15----15----15-15----15----15-15--||-----15---15---15-15---15---15-15-|
---8-----8-----8--------8-----8---------||---4----4----4-------4----4-------|

2x
----------------------------------||----------------------------------------||
----------------------------------||----------------------------------------||
--7----7----7-------7----7-------*||*--------------------------------------*||
----13---13---13-13---13---13-13-*||*--10----10----10-------10----10-------*||
----15---15---15-15---15---15-15--||------15----15----15-15----15----15-15--||
--6----6----6-------6----6--------||---8-----8-----8--------8-----8---------||


---------------------------------------|--------------------------------------|
---------------------------------------|--------------------------------------|
*--12----12----12-------12----12-------|--13----13----13-------13----13-------|
*--10----10----10-------10----10-------|--------------------------------------|
------15----15----15-15----15----15-15-|--13-15-13-15-13-15-15-13-15-13-15-15-|
---------------------------------------|--------------------------------------|


--------------------------------------|---------------------------------------||
--------------------------------------|---------------------------------------||
--12----12----12-------12----12-------|--10----10----10-------10----10-------*||
--------------------------------------|--------------------------------------*||
--11-15-11-15-11-15-15-11-15-11-15-15-|--10-15-10-15-10-15-15-10-15-10-15-15--||
--------------------------------------|---------------------------------------||


--------------------------------------------|
--------------------------------------------|
--12----12-------12----12----12----12-------|
--10----10-------10----10----10----10-------|
-----15----15-15----15----15----15----15-15-|
--------------------------------------------|

--------------------------------------------|
--------------------------------------------|
--13----13-------13----13----13----13-------|
--------------------------------------------|
--13-15-13-15-15-13-15-13-15-13-15-13-15-15-|
--------------------------------------------|


--------------------------------------------|
--------------------------------------------|
--12----12-------12----12----12----12-------|
--------------------------------------------|
--11-15-11-15-15-11-15-11-15-11-15-11-15-15-|
--------------------------------------------|


--------------------------------------------|
--------------------------------------------|
--10----10-------10----10----10----10-------|
--------------------------------------------|
--10-15-10-15-15-10-15-10-15-10-15-10-15-15-|
--------------------------------------------|


--------------------------------------|--------------------------------------|
--------------------------------------|--------------------------------------|
--12----12----12-------12----12-------|--13----13----13-------13----13-------|
--10----10----10-------10----10-------|--------------------------------------|
-----15----15----15-15----15----15-15-|--13-15-13-15-13-15-15-13-15-13-15-15-|
--------------------------------------|--------------------------------------|


--------------------------------------|--------------------------------------|
--------------------------------------|--------------------------------------|
--12----12----12-------12----12-------|--10----10----10-------10----10-------|
--------------------------------------|--------------------------------------|
--11-15-11-15-11-15-15-11-15-11-15-15-|--10-15-10-15-10-15-15-10-15-10-15-15-|
--------------------------------------|--------------------------------------|


--------------------------------------|--------------------------------------|
--------------------------------------|--------------------------------------|
--------------------------------------|--------------------------------------|
--10----10----10-------10----10-------|--10----10----10-------10----10-------|
-----15----15----15-15----15----15-15-|-----15----15----15-15----15----15-15-|
--8-----8-----8--------8-----8--------|--8-----8-----8--------8-----8--------|


--------------------------------------|--------------------------------------|
--------------------------------------|--------------------------------------|
--------------------------------------|--------------------------------------|
--10----10----10-------10----10-------|--10----10----10-------10----10-------|
-----15----15----15-15----15----15-15-|-----15----15----15-15----15----15-15-|
--8-----8-----8--------8-----8--------|--8-----8-----8--------8-----8--------|



----------------||
----------------||
----------------||
--10------------||
----------------||
--8-------------|| 
шаблоны для dle 11.2
https://guitar1st.ru/75101-the-forgotten-part.html
Пожалуйста не удаляйте ссылку на источник!

Видео


Аппликатура распознанных аккордов:

Добавить комментарий

Оставить комментарий

Кликните на изображение чтобы обновить код, если он неразборчив