{instrum_title}

Карлик Нос - Последний звонок Аккорды, Табы


Intro:
B ----4/-5----3-------------4/-5-----3-------------
G||--2--------2/-4----5---------------------2----------------------2------
B -----------------------------4/-5----3-------------5-----3-------------||
G --2--------2/-4----4h-5---------------------2-------------------2------||
{ В куплетах играются такие ноты:
(* - приглушенно
 ~ - играется много раз до следующей ноты)
G --2*~--------------2p0-2*~---------2/5*~--5-
  Одноклассники по свету разлетелись кто куда
B --5*~--------------5p0---3*~--------------3-
  Кто-то делает конфеты, кто-то водит поезда //}
Одноклассники по свету разлетелись кто куда
Кто-то делает конфеты, кто-то водит поезда
Кто играет на кларнете, кто рулеточный игрок
Кто в оранжевом жилете на строительстве дорог
Припев:
D5 (V)
A5 (V)          F5                  C5 G/C C5    A5 E5 (VII)
Милые дети, сегодня в нашей школе последний звонок.
A5 (V)          F5                  C5 G/C C5    A5 E5 (VII)
Милые дети, сегодня в нашей школе последний звонок.
Одноклассники по свету разлетелись кто куда
Кто-то делает конфеты, кто-то водит поезда
Тяжела игра без правил, сердце рвется на куски
Кто-то мафию возглавил, кто-то штопает носки
Припев.
E||--10----------10--------10--------------
B||--------12--------12----------12--------
E--10------------------10------------
B --------12----10--12------12--------
E--10----------------------------------
B --------12----10--9----7----12--------
E--10-----------------------------||
B --------12----10--7----12--------||
Одноклассники по свету разлетелись кто куда
Кто-то делает конфеты, кто-то водит поезда
В лабиринтах наших судеб тихо всхлипывает дверь
Это кто-то вышел в люди - не вернется он теперь
Припев.
A5 (V)          F5                
Милые дети, сегодня в нашей школе...
A5 (V)          F5                
Милые дети, сегодня в нашей школе...
A5 (V)          F5                  C5 G/C C5    A5 E5 (VII) D5 (V) C5 A5
Милые дети, сегодня в нашей школе последний звонок.
Outro:
B -------4/-5----3-------------4/-5-----3-------------
G||--2--------2/-4----4/-5---------------------2----------------------2------
B -----------------------------4/-5----3-------------5-----3-------------
G --2--------2/-4----4h-5---------------------2-------------------2------
B -----------------------4/-5----3-------------5-----3-------------
G --2--------4----5---------------------2-------------------2------
B -----------------------5----3-------------5-----3-------------||
G --2--------4----5------------------2-------------------2------||
шаблоны для dle 11.2
https://guitar1st.ru/17376-posledniy-zvonok.html
Пожалуйста не удаляйте ссылку на источник!

Видео


Аппликатура распознанных аккордов:

Добавить комментарий

Оставить комментарий

Кликните на изображение чтобы обновить код, если он неразборчив