{instrum_title}

Kings X - Dogman Аккорды, Табы


Dogman by Kings X from the Dogman album
Transcribed by David Hunter
This is pretty close to the original from the sound of it.
If you find any parts that could be played differently and sound closer then email me
at : Den@givemeanegg.freeserve.co.uk
Dropped D tuning, drop the whole guitar down half a step before dropping the E to D.
Actual string tunings are C# G# C# F# A# D#
KEY:
- = DOWNSTROKE
- = UPSTROKE
H = HAMMER ON
S = SLIDE ( 0H3 IS ALSO A SLIDE)
~ = VIBRATO
0.H = OPEN HARMONIC (I.E. FINGER ONLY RESTING ON STRING ABOVE FRET)
A.H = ARTIFICIAL HARMONIC OR 'PICKED' HARMONIC
P.M = PALM MUTE UNTIL END OF .....

START       BAR1                             BAR2

            0.H.......ETC    P.M......A.H                  P.M..
E---X--X--|---------------------------------|--7-6-0-6-0-5-3-5-3-0------6-0-5----5-0------|
A---5--5--|--5-5-5-5-5-------5-3-5----------|--7-6-0-6-0-5-3-5-3-0------6-0-5----5-0------|
D---X--X--|------------------------3-5-3~---|-------------------------0--------0-----0-0-0|
G---5--5--|---------------------------------|-------------------------5--------5-----5-5-5|
B---6--6--|---------------------------------|-------------------------6--------6-----6-6-6|
E---X--X--|---------------------------------|---------------------------------------------|
    -  -     - - - - -       - - - - - -       - - - H - H - - - -    - - - H  - - - - - -
E---0---0---|----------|-----------|---0---0---|----------|----------|
A---0---0---|---BAR1---|----BAR2---|---0---0---|---BAR1---|---BAR2---|
D-----------|----------|-----------|-----------|----------|----------|
G-----------|----------|-----------|-----------|----------|----------|
B-----------|----------|-----------|-----------|----------|----------|
E-----------|----------|-----------|-----------|----------|----------|
    -   -                              -   -

E--0-2-2-2-----0-2-2-2--5--0-------------X-X--X-X-X-X-------X-X--X-X-----X---X-------X-----|
A--0-2-2-2-----0-2-2-2--5--0-------------0H3--3-3-3-3-------0H3--3-3--5--0---3-------3-----|
D----------0-0----------------0----------0-0--0-0-0-0-------0-0--0-0-----2---0-------0-----|
G----------0-0----------------2-------4--0-0--0-0-0-0-------0-0--0-0-----2---0-------0-----|
B----------3-3----------------3-----0-------------3-3-------3-3--3-3---------3-------3-----|
E-------------------------------------------------3-3-------3-3--3-3---------3-------3-----|
   - H - - - - - H - -  S  -  -     - -  - -  - - - -       - -  - -  S  -   -       -

E----6-0-5-3-0--0---0---|----------|----------|---0---0---|----------|----------|
A----6-0-5-3-0--0---0---|---BAR1---|---BAR2---|---0---0---|---BAR1---|---BAR2---|
D-----------------------|----------|----------|-----------|----------|----------|
G--0--------------------|----------|----------|-----------|----------|----------|
B--6--------------------|----------|----------|-----------|----------|----------|
E--5--------------------|----------|----------|-----------|----------|----------|
   - - - - - -  -   -                             -   -
E--0-2-2-2-----0-2-2-2--5--0-------------X-X--X-X-X-X-------X-X--X-X-----X---X-------X-----|
A--0-2-2-2-----0-2-2-2--5--0-------------0H3--3-3-3-3-------0H3--3-3--5--0---3-------3-----|
D----------0-0----------------0----------0-0--0-0-0-0-------0-0--0-0-----2---0-------0-----|
G----------0-0----------------2-------4--0-0--0-0-0-0-------0-0--0-0-----2---0-------0-----|
B----------3-3----------------3-----0-------------3-3-------3-3--3-3---------3-------3-----|
E-------------------------------------------------3-3-------3-3--3-3---------3-------3-----|
   - H - - - - - H - -  S  -  -     - -  - -  - - - -       - -  - -  S  -   -       -
E----6-0-5-3-0--|
A----6-0-5-3-0--|
D---------------|
G--0------------|
B--6------------|
E--5------------|
   - - - - - -

THIS SECTION HAS 2 GUITAR PARTS PLAYING SIMULTANEOUSLY
GTR1                                       BAR3 - DIST
E------X-X-X-X------X-X-X-X------X-X-X-X------X-X-X-X------X-X-X-X------X-X-X-X------X-X-X-X-|----6-0-5-3-0-|
A------X-X-X-X------X-X-X-X------X-X-X-X------X-X-X-X------X-X-X-X------X-X-X-X------X-X-X-X-|----6-0-5-3-0-|
D--0-0-X-X-X-X--0-0-X-X-X-X--0-0-X-X-X-X--0-0-X-X-X-X--0-0-X-X-X-X--0-0-X-X-X-X--0-0-X-X-X-X-|--0-----------|
G--5-5-X-X-X-X--5-5-X-X-X-X--5-5-X-X-X-X--5-5-X-X-X-X--5-5-X-X-X-X--5-5-X-X-X-X--5-5-X-X-X-X-|--5-----------|
B--6-6-X-X-X-X--6-6-X-X-X-X--6-6-X-X-X-X--6-6-X-X-X-X--6-6-X-X-X-X--6-5-X-X-X-X--6-6-X-X-X-X-|--6-----------|
E------X-X-X-X------X-X-X-X------X-X-X-X------X-X-X-X------X-X-X-X------X-X-X-X------X-X-X-X-|--------------|
   - - - - - -  - - - - - -  - - - - - -  - - - - - -  - - - - - -  - - - - - -  - - - - - -    - - - H S -
GTR2
E-----------------------------------------X-X-X-X------X-X-X-X------X-X-X-X------X-X-X-X-----|----6-0-5-3-0-|
A-----------------------------------------X-X-X-X------X-X-X-X------X-X-X-X------X-X-X-X-----|----6-0-5-3-0-|
D-----------------------------------------X-X-X-X-0-0--X-X-X-X-0-0--X-X-X-X-0-0--X-X-X-X-0-0-|--0-----------|
G-----------------------------------------X-X-X-X-5-5--X-X-X-X-5-5--X-X-X-X-5-5--X-X-X-X-5-5-|--5-----------|
B-----------------------------------------X-X-X-X-6-6--X-X-X-X-6-6--X-X-X-X-6-6--X-X-X-X-6-6-|--6-----------|
E-----------------------------------------X-X-X-X------X-X-X-X------X-X-X-X------X-X-X-X-----|--------------|
                                          - - - - - -  - - - - - -  - - - - - -  - - - - - -    - - - H S -
BACK TO 1 GUITAR
   P.M.....         P.M.....         P.M.....
E---0-0-0-0----------0-0-0-0----------0-0-0-0----------|----6-0-5-3-0--|------|
A---0-0-0-0----------0-0-0-0----------0-0-0-0----------|----6-0-5-3-0--|------|
D-----------0-0-0-0----------0-0-0-0----------0-0-0-0--|--0------------|--X2--|
G-----------5-5-5-5----------5-5-5-5----------5-5-5-5--|--5------------|------|
B-----------6-6-6-6----------6-6-6-6----------6-6-6-6--|--6------------|------|
E------------------------------------------------------|---------------|------|
    - - - - - - - -  - - - - - - - -  - - - - - - - -     - - - H S -

E--2-2------2-2------3-3------3-3------5-5------5-5------7-7------7-7-----|
A--2-2------2-2------3-3------3-3------5-5------5-5------7-7------7-7-----|
D--2-2-2-2--2-2-2-2--3-3-3-3--3-3-3-3--5-5-5-5--5-5-5-5--7-7-7-7--7-7-7-7-|
G------0-0------0-0------0-0------0-0------0-0------0-0------0-0------0-0-|
B------0-0------0-0------0-0------0-0------0-0------0-0------0-0------0-0-|
E-------------------------------------------------------------------------|
   - - - -  - - - -  - - - -  - - - -  - - - -  - - - -  - - - -  - - - -

E--3-3------3-3------5-5------5-5------7-7------7-7------8-8------10-10--------|----6-0-5-3-0-|
A--3-3------3-3------5-5------5-5------7-7------7-7------8-8------10-10--------|----6-0-5-3-0-|
D--3-3-3-3--3-3-3-3--5-5-5-5--5-5-5-5--7-7-7-7--7-7-7-7--8-8-8-8--10-10-10-10--|--0-----------|
G------0-0------0-0------0-0------0-0------0-0------0-0------0-0---------0--0--|--5-----------|
B------0-0------0-0------0-0------0-0------0-0------0-0------0-0---------0--0--|--6-----------|
E------------------------------------------------------------------------------|--------------|
   - - - -  - - - -  - - - -  - - - -  - - - -  - - - -  - - - -   -  -  -  -     - - - H S -
E---0---0---|----------|-----------|---0---0---|----------|----------|
A---0---0---|---BAR1---|----BAR2---|---0---0---|---BAR1---|---BAR2---|
D-----------|----------|-----------|-----------|----------|----------|
G-----------|----------|-----------|-----------|----------|----------|
B-----------|----------|-----------|-----------|----------|----------|
E-----------|----------|-----------|-----------|----------|----------|
    -   -                              -   -

E--0-2-2-2-----0-2-2-2--5--0-------------X-X--X-X-X-X-------X-X--X-X-----X---X-------X-----|
A--0-2-2-2-----0-2-2-2--5--0-------------0H3--3-3-3-3-------0H3--3-3--5--0---3-------3-----|
D----------0-0----------------0----------0-0--0-0-0-0-------0-0--0-0-----2---0-------0-----|
G----------0-0----------------2-------4--0-0--0-0-0-0-------0-0--0-0-----2---0-------0-----|
B----------3-3----------------3-----0-------------3-3-------3-3--3-3---------3-------3-----|
E-------------------------------------------------3-3-------3-3--3-3---------3-------3-----|
   - H - - - - - H - -  S  -  -     - -  - -  - - - -       - -  - -  S  -   -       -
E--X-------X---------6-0-5-3-0--|
A--3-------3---------6-0-5-3-0--|
D--0-------0--------------------|
G--0-------0-------0------------|
B--3-------3-------6------------|
E--3-------3-------5------------|
   -       -       - - - - - -

  P.M.....         P.M.....         P.M.....
E--0-0-0-0----------0-0-0-0----------0-0-0-0------------6-0-5-3-0--|--------|
A--0-0-0-0----------0-0-0-0----------0-0-0-0------------6-0-5-3-0--|--------|
D----------0-0-0-0----------0-0-0-0----------0-0-0-0--0------------|---X4---|
G----------5-5-5-5----------5-5-5-5----------5-5-5-5--5------------|--------|
B----------6-6-6-6----------6-6-6-6----------6-6-6-6--6------------|--------|
E------------------------------------------------------------------|--------|
   - - - - - - - -  - - - - - - - -  - - - - - - - -  - - - H S -
Den@givemeanegg.freeserve.co.uk
шаблоны для dle 11.2
https://guitar1st.ru/29138-dogman.html
Пожалуйста не удаляйте ссылку на источник!

Видео


Аппликатура распознанных аккордов:

Добавить комментарий

Оставить комментарий

Кликните на изображение чтобы обновить код, если он неразборчив