{instrum_title}

Lake of Tears - Raven Land Аккорды, Табы


 Lake Of Tears - Raven Land
G [ ----------------------------------------------------------
D [ ----------------------------------------------------------
A [ ------5--------5------------------8--------8--7--3*-5*----
E [ 0--5-----5--6-----5------------6-----6--8-----------------

G   ----------------------------------------------------------
D   ---------------------------------------------5------------
A   ------5--------5-----------------8--------8-----3*-5*-----
E   ---5-----5--6-----5-----------6-----6--8------------------

G   ----------------------------------------------------------
D   ----------------------------------------------------------
A   ------5--------5-----------------8--------8--7--3*--5*----
E   ---5-----5--6-----5-----------6-----6--8------------------

G   ---------------------------------------------------------]
D   ------------------------------------------3-----3--------]
A   ------5--------5-----------------8-----3-----5-----------]
E   ---5-----5--6-----5-----------6-----6--------------------]

G [ -----------------------------------------------------------
D [ -----------------------------------------------------------
A [ ---5--5--5---5--5-5---5--5--5----8--8--8---7--7--7---------
E [ -----------------------------------------------------8--8--

G   ----------------------------------------------------------]
D   -------------------------------------------5--5--5--------]
A   ---5--5--5---5--5-5---5--5--5----8--8--8------------------]
E   -----------------------------------------------------8----]
G [ ----------------------------------------------------------
D [ ----------------------------------------------------------
A [ ----------------------------------------------------------
E [ --0--0--0--0----2--2--2--2----2--2--2--2----3--3--3--3----

G   ---------------------------------------------------------]
D   ---------------------------------------------------------]
A   ---------------------------------------------------------]
E   --0--0--0--0----2--2--2--2----2--2--2--2----0--0--0------] 
шаблоны для dle 11.2
https://guitar1st.ru/55402-raven-land.html
Пожалуйста не удаляйте ссылку на источник!

Видео


Аппликатура распознанных аккордов:

Добавить комментарий

Оставить комментарий

Кликните на изображение чтобы обновить код, если он неразборчив