{instrum_title}

Mars Volta - Tira Me A Las Aranas Аккорды, Табы


-------------------------------------------------------------------------------
			     Tira Me a las Аrасаs - The Mars Volta
-------------------------------------------------------------------------------
Tabbed by:Alex Radovanovich
Tuning:Standard
This song is done on some kind of latin stringed instrument, but you can play it
on an acoustic by hand, and it sounds good.
Also, if the song is easier, let me know!
e|-----1-----0---1p0-----------4---1-------1-----------0-----0-------|
B|-3-0---3-------------1-3-1---------3---0---3---1-3-----1-----4---0-|
G|---------------------------------------------------------2-----2---|
D|-0---3-0---2-----------------------0-----3-0-----0---2-----2-------|
A|---------------------------------------------2-3-------------------|
E|-------------------------------------------------------------------|

e|-------1--------------1-----------------1-------1-----1-------1---------|
B|-3---0---3-3b-------------0-4-3---3---0---3-3/4-1---------1-------------|
G|------------------------2-------------------------4-----2---2-----------|
D|-0-----3-0----3-2---0-3-0---------0-----3-0-----------3-------3-0-------|
A|------------------------------------------------------------------0-3-0-|
E|------------------------------------------------------------------------|
Electric guitar played w/ above
e|------------------------------------------------------------------------|
B|--------------------------------------------------------------------8---|
G|----------------------------------------------------------------------7-|
D|------------------------------------------------------------------------|
A|------------------------------------------------------------------------|
E|------------------------------------------------------------------------|

e|-------1--------------4-----5-----------1-----------------------|
B|-3---0---3-0---3b---0---3-1---4-1-3---0---3-1-0-1---0-3-1-0-4-1-|
G|----------------------------------------------------------------|
D|-0-----3-0------------------------0-----3-0---------------------|
A|----------------------------------------------------------------|
E|----------------------------------------------------------------|
Electric
e|-10-----------------------------------8-----12------------------|
B|----------------------------------------10------10--------------|
G|----------------------------------------------------------------|
D|----------------------------------------------------------------|
A|----------------------------------------------------------------|
E|----------------------------------------------------------------|

e|---------------------------------------1-------0-------1-----|
B|-3-----0-------3-----------------3---0---3-0-------1-3-------|
G|-------------------------------------------------------------|
D|---------3-0-2-----0-------------0-----3-0-----------------3-|
A|---------------------3-2---0-3-2-----------------------------|
E|-------------------------------------------------------------|
Electric
e|-10/---------------------------------------------------------|
B|---------------------------------8---------------------------|
G|-------5---------------------7-------------------------------|
D|-------------7-----------------------------------------------|
A|-------------------5-----8-----------------------------------|
E|-------------------------------------------------------------|

e|-----1----------------1-----5---------1---------1-------------5---|
B|-3-0---3---3b---3---0---3-----1-4-3-0---3---3-------0---4-1-0---4-|
G|--------------0-----------2---------------------------2-----------|
D|-0---3-0--------0-----3-0---------0---3-0-----0-3-----------------|
A|---------3--------------------------------2-----------------------|
E|------------------------------------------------------------------|
Electric
e|-15-------------17----------------12------------------------------|
B|-------15---------------------------------------------------------|
G|-----13----14-----------------------------------------------------|
D|------------------------------------------------------------------|
A|------------------------------------------------------------------|
E|------------------------------------------------------------------|

e|-------1-------------1---------------1---------1---4-3-1-----------|
B|-3-0-----3-3-0-3---0---3---------3-0---3-0-4-0-----------3/4-1-0-1-|
G|-----2-------------------------------------------------------------|
D|-0-----3-0-----0-----3-0---------0---3-0---------------------------|
A|-------------------------2-3-0-2-----------------------------------|
E|-------------------------------------------------------------------|
Electric
e|-------------------------------------------------------------------|
B|-8-------------------------------7---------------------------------|
G|-------------------------------------------------------------------|
D|-------------------------------------------------------------------|
A|-------------------------------------------------------------------|
E|-------------------------------------------------------------------|

Song fades

| /  slide up
|   slide down
| h  hammer-on
| p  pull-off
| ~  vibrato
| +  harmonic
| x  Mute note
===============================================================================
шаблоны для dle 11.2
https://guitar1st.ru/28064-tira-me-a-las-aranas.html
Пожалуйста не удаляйте ссылку на источник!

Видео


Аппликатура распознанных аккордов:

Добавить комментарий

Оставить комментарий

Кликните на изображение чтобы обновить код, если он неразборчив