{instrum_title}

Miller Glenn - In The Mood Аккорды, Табы


Страницы: 1 2
#----------------------------------PLEASE NOTE---------------------------------#
#This file is the author's own work and represents their interpretation of the #
#song. You may only use this file for private study, scholarship, or research. #
#------------------------------------------------------------------------------#
#
-----------------------------------------------------------------
                 IN THE MOOD  Glen Miller Arrangement
-----------------------------------------------------------------
transcribed by kupfer   email mkupfer@sprint.ca
chords used in this tune:
   C6  D7  G7  F6  G9  Ab7  Ebdim7  Dm7  Dm7/G
e   5   X   3   1   5   4     2      X     X
B   5   3   3   3   3   4     1      6     3
G   5   5   4   2   4   5     2      5     2
D   5   4   3   3   3   4     1      7     3
A   3   5   5   X   5   6     X      5     X
E   X   X   3   1   3   4     X      X     3
              thumb                       thumb
note: the !! stand for horn shots. play them forcefully on
      the upstroke

swing rhythm

  INTRO                                                C6!
e|---------8---8---8-|(8)-8---8-7-8-----|------------------|
B|-------8-----------|--------------8---|-8-7-6-5-4-3------|
G|-----9-------------|----------------9-|---------------5--|
D|--10---------------|------------------|------------------|
A|-------------------|------------------|------------------|
E|-------------------|------------------|------------------|

                      D7!        !!               !!
e|--------8---------|-----------------|-------------------|
B|------8-----8-----|---5-----------5-|-----------5-------|
G|(5)/9---------9-5-|-7---7-5-----7---|-7-5-------5-------|
D|------------------|---------7-------|-----7-7---7-------|
A|------------------|-----------------|-------------------|
E|------------------|-----------------|-------------------|
   G7!         !!                 F6!
e|-----------------|------------------|-|
B|---5-----------5-|------------------|-|
G|-7---7-5-----7---|-7-5--------------|-|
D|---------7-------|-----7-7----------|-|
A|-----------------|------------------|-|
E|-----------------|------------------|-|

   C6!                          !!  !!
e|-----8-----8-----|-8-----8----------|-----8-----8------|
B|---8-----8-----8-|-----8------------|---8-----8-----8--|
G|-9-----9-----9---|---9--------------|-9-----9-----9----|
D|-----------------|------------------|------------------|
A|-----------------|------------------|------------------|
E|-----------------|------------------|------------------|
             C7!  F6!                             F6!  C6!
e|-8-----8---------|-----8-----8------|-8-----8----------|
B|-----8-----------|---10----10----10-|-----10-----------|
G|---9-------------|-10----10----10---|---10-------------|
D|-----------------|------------------|------------------|
A|-----------------|------------------|------------------|
E|-----------------|------------------|------------------|
                               C6!   G9!
e|-----8-----8-----|-8-----8----------|-----10----10------|
B|---8-----8-----8-|-----8------------|---12----12----10--|
G|-9-----9-----9---|---9--------------|-12----12----12----|
D|-----------------|------------------|-------------------|
A|-----------------|------------------|-------------------|
E|-----------------|------------------|-------------------|

                    ______________________________________
                   | 1                                    |
             F6!  C6!      F6!     Ab7!          F6!   C6!
e|-10----10--------|---8-8-8-8-8-8-8-|-8-8-8-8-8---------|-|
B|-----12----------|-----------------|-------------------|-|
G|---12------------|-----------------|-----------------o-|-|
D|-----------------|-----------------|-----------------o-|-|
A|-----------------|-----------------|-------------------|-|
E|-----------------|-----------------|-------------------|-|
  _____________________
 | 2
  C6!    F6!        Ab F6  C6
e|-8-8-8-8-8-8-8-8-|-8-8---8----------|-|
B|-----------------|-7-6---5----------|-|
G|-----------------|------------------|-|
D|-----------------|------------------|-|
A|-----------------|------------------|-|
E|-----------------|------------------|-|

   C6     Ebdim7      Dm7      Dm7/G
e|-8------8---------|--------8-12--12-------|
B|---10-------------|------10---------------|
G|------------------|----10-----------------|
D|------------------|-----------------------|
A|------------------|-----------------------|
E|------------------|-----------------------|

   C6      Ebdim7      Dm7       Dm7/G
e|-8-------8---------|--------8-12---15--------|
B|---10--------------|------10-----------------|
G|-------------------|----10-------------------|
D|-------------------|-------------------------|
A|-------------------|-------------------------|
E|-------------------|-------------------------|

   C6      Ebdim7      Dm7       Dm7/G
e|-8-------8---------|--------8-12---15--------|
B|---10--------------|------10-----------------|
G|-------------------|----10-------------------|
D|-------------------|-------------------------|
A|-------------------|-------------------------|
E|-------------------|-------------------------|

   G9       Ab           G9   F7   C6
e|-15-15----15-15---15-|-15---11--------------|-|
B|---------------------|-----------13---------|-|
G|---------------------|----------------------|-|
D|---------------------|----------------------|-|
A|---------------------|----------------------|-|
E|---------------------|----------------------|-|

шаблоны для dle 11.2

https://guitar1st.ru/28315-in-the-mood.html
Пожалуйста не удаляйте ссылку на источник!

Видео


Аппликатура распознанных аккордов:

Добавить комментарий

Оставить комментарий

Кликните на изображение чтобы обновить код, если он неразборчив