{instrum_title}

Morbid Angel - Angel Of Disease Аккорды, Табы


                 Morbid Angel - Angel of Disease
                    From the Album Covenant
               Copyright 1993 Giant Records
                     Version 1.0 - Februaru 2001
Transcribed by: Bobby Rafuse
For Questions, Comments, Newest Version, or Corrections contact
Bobby Rafuse: at metal_music69@hotmail.com
Check Out Death Warp, With More Transcriptions On It:
 http://tiger.towson.edu/~dalvis1
..  - palm mute          /  - slide up to
   - slide down to      ~  - vibrato
 h  - hammer on          b  - bend
 p  - pull off            Suffixes for bend
                          ph - pinch harmonic
                           f - full bend    h - half bend
*  - see comment           r - release      t - tap bend
X  - percussion mute       ~ - vibrato bend
@  - slight palm mute     () - ghost note, sustained note
Tune Gtr to Eb

*note* I didn't put the timing on this song or what riffs are played where
       so you'll have to figure it out cause this song is too long to sit
       there and figure out how many time to play what. Have fun.

Riff 1
|------------------------|
|------------------------|
|------------------------|
|----7----9-10----74-5--|
|----5----7--8----52-3--|
|-00---00------00--------|
pm..   ..      ..

Riff 2
|----------------------------------------------------------|
|----------------------------------------------------------|
|----------------------------------------------------------|
|----------------------------------------------------------|
|-2----------5------4--4--3~--2----------5-------4--4--5~--|
|-0--0-0-0-0-3--0-0-----------0--0-0-0-0-3--0-0------------|
pm   . . . .    . .              . . . .    . .

Riff 3 (Chorus)
|----------------------------------------------------|
|----------------------------------------------------|
|----------------------------------------------------|
|------76-------65---------------76-------65-----|
|-87--54--76--43--87-5/7-87--54--76--43--5--|
|-65-------54-------65-3/5-65-------54-------3--|

Fill (Haven't figured this part out yet. Any help would be nice)
|-----------|
|-----------|
|-----------|
|-????????--|
|-????????--|
|-????????--|

Riff 4
|-----------------------------|
|-----------------------------|
|-----------------------------|
|-------6---6-6/76-----------|
|-8--7--4---4-4/54-8--8-8-8--|
|-6--5--------------6--6-6-6--|
pm                     . . .

Riff 5
|------------------------------------------------------------------------------------|
|------------------------------------------------------------------------------------|
|------------------------------------------------------------------------------------|
|-------------------------------------------------(haven't got the part after this)--|
|-6--76-6-6-6-6--6-109-9-9-9-9--6--76-6-6-6-6-------------------------------------|
|-4--54-4-4-4-4--4--87-7-7-7-7--4--54-4-4-4-4-------------------------------------|
pm       . . . .         . . . .         . . . .

Riff 6 (before one of the many solos)
|--------------|
|--------------|
|--------------|
|--------------|
|-(7)-----(4)--|
|-(5)-----(2)--|

Riff 7
|---------------------------------------------------|
|---------------------------------------------------|
|---------------------------------------------------|
|---------------------------------------------------|
|-7-----7-----7-----7--5--4-----4-----4-----5-------|
|-5-555-5-555-5-555-5--3--2-222-2-222-2-222-3-3333--|
pm  ...   ...   ...         ...   ...   ... . ....
end of song.
Check Out Death Warp, With More Transcriptions On It:
 http://tiger.towson.edu/~dalvis1
шаблоны для dle 11.2
https://guitar1st.ru/28427-angel-of-disease.html
Пожалуйста не удаляйте ссылку на источник!

Видео


Аппликатура распознанных аккордов:

Добавить комментарий

Оставить комментарий

Кликните на изображение чтобы обновить код, если он неразборчив