{instrum_title}

Morbid Angel - Blood On My Hands Аккорды, Табы


 Tabbed by:THE SANDMAN 
Email:ryan5@iamwasted.com
Tuning Bb
|--------------------|---------------------|
|--------------------|---------------------|
|--------------------|---------------------|
|--------------------|---------------------|
|--------------------|-----------66777777--|
|-6669-6669-6669-6---|-6669-6669-66777777--|
|-----------------------|------------------------|
|-----------------------|------------------------|
|-----------------------|------------------------|
|-----------------------|------------------------|
|-----------------7-----|-----------------7~-(7)-|
|-6667-6669-666679-9767-|-6667-6669-66667--------|

|-------------------------|-----------------------------|
|-------------------------|-----------------------------|
|-------------------------|-----------------------------|
|-------3/4---4/5-5--(5)-|-------3/4-----5/-108---97-|
|-------------------------|-----------------------------|
|-0-0-0-1/2-0-2/3-3--(3)-|-0-0-0-1/2-0-0-3/--86-0-75-|
|-------------------------|-----------------------------|
|-------------------------|-----------------------------|
|-------------------------|-----------------------------|
|-------3/4---4/5-5--(5)-|-------3/4-----5/-108---97-|
|-------------------------|-----------------------------|
|-0-0-0-1/2-0-2/3-3--(3)-|-0-0-0-1/2-0-0-3/--86-0-75-|
|----------------------------|----------------------------|
|----------------------------|----------------------------|
|----------------------------|----------------------------|
|----------------------------|----------------------------|
|-2-----5-----7-----9/109-7-|-2-----5-----9/109---3--3--|
|-0-000-3-333-5-555-7/-87-5-|-0-000-3-333-7/-87-0-1--1--|
|-----------------------|-----------------------|
|-----------------------|-----------------------|
|-----------------------|-----------------------|
|-----------------------|-----------------------|
|--------------33332222-|--------------44443333-|
|-111111111111----------|-444433332222----------|
|------------------------------------|-----------------------------------|
|------------------------------------|-----------------------------------|
|------------------------------------|-----------------------------------|
|------------7/87------------9/109-|------------7/87------------------|
|-87--------5/65-87--------7/-87-|-87--------5/65-87--------8--8--|
|-65-555555-------65-555555--------|-65-555555-------65-555555-6--6--|
|------------------------------------|----------------------------------------|
|------------------------------------|----------------------------------------|
|------------------------------------|----------------------------------------|
|------------7/87------------9/109-|------------7/87-----------------------|
|-87--------5/65-87--------7/-87-|-87--------5/65-87-5--5--5--4--4--4--|
|-65-555555-------65-555555--------|-65-555555-------65-3--3--3--2--2--2--|
|-----------------|
|-----------------|
|-----------------|
|-3~-----5--6--7--|
|-----------------|
|-1~-----3--4--5--|
|-------------------------|----------------------|
|-------------------------|----------------------|
|-------------------------|----------------------|
|-------------------------|----------------------|
|-4--4--4--3--333-333-33--|-4--4--3--333-333-33--|
|-2--2--2--1--111-111-11--|-2--2--1--111-111-11--|
|-----------------------|-----------------------|
|-----------------------|-----------------------|
|-----------------------|-----------------------|
|------3/43------5/65-|------3/43------------|
|------1/21------3/43-|------1/21------4--4--|
|-1111-------1111-------|-1111-------1111-2--2--|
|-----------------------|-----------------------------|
|-----------------------|-----------------------------|
|-----------------------|-----------------------------|
|------3/43------5/65-|------3/43------------------|
|------1/21------3/43-|------1/21------4--4--4--3--|
|-1111-------1111-------|-1111-------1111-2--2--2--1--| 
шаблоны для dle 11.2
https://guitar1st.ru/60560-blood-on-my-hands.html
Пожалуйста не удаляйте ссылку на источник!

Видео


Аппликатура распознанных аккордов:

Добавить комментарий

Оставить комментарий

Кликните на изображение чтобы обновить код, если он неразборчив