{instrum_title}

Morbid Angel - Dawn Of The Angry Аккорды, Табы


 DAWN OF THE ANGRY - Morbid Angel - Domination
Six-String Rhythm Guitar transcribed on Bass
Tuning (Low - High): Eb Ab Db Gb
A1 (Guitar 1 Left Speaker)
|-----------------------------------------------------------------|
|-----------------------------------------------------------------|
|-----------------------------------------------------------------|
|-7-7-7-7-6-6-3-3-6-6-3-3-2-2-3-3-3-3-2-2-3-3-6-6-6-6-2-2-3-3-7-7-|
A1 (Guitar 2 Right Speaker)
|-----------------------------------------------------------------|
|-----------------------------------------------------------------|
|---------------------------------------------5-5-5-5---------6-6-|
|-7-7-7-7-6-6-3-3-6-6-3-3-2-2-3-3-3-3-2-2-3-3---------2-2-3-3-----|
A2 (Guitar 1 Left Speaker)
|-----------------------------------------------------------------|
|-----------------------------------------------------------------|
|---------------------------------------------5-5-6-6-5-5-2-2-5-5-|
|-7-7-7-7-6-6-3-3-6-6-3-3-2-2-3-3-3-3-2-2-3-3---------------------|
A2 (Guitar 2 Right Speaker)
|-----------------------------------------------------------------|
|-----------------------------------------------------------------|
|-----------------------------------------------------------------|
|-7-7-7-7-6-6-3-3-6-6-3-3-2-2-3-3-3-3-2-2-3-3-6-6-7-7-6-6-3-3-6-6-|
Structure of A = (A1 + A2) x 2

B (Guitar 1 Left Speaker)                              Play 2 times
|---------------------------------------------------|
|-6--------5----------------------------------------|
|-4--------3--------2-2-2-2-2-2-2-2-1-1-1-1-1-1-1-1-|
|-4--------3----------------------------------------|
B (Guitar 2 Right Speaker)
|---------------------------------------------------|
|-6--------5----------------------------------------|
|-4--------3----------------------------------------|
|-4--------3--------3-3-3-3-3-3-3-3-2-2-2-2-2-2-2-2-|

C                                    Play 4 times
|-----------------------------------------------|
|-------------4-p-2-----------------------------|
|-7-p-5---2-----------2---7-p-5--2--1-1-2-2-1-1-|
|-----------------------------------------------|

D                                                        Play 4 times
|---------------------------------|---------------------------------|
|---------------------------------|---------------------------------|
|---------------------------------|---------------------------------|
|-6h7-7-7-3-3-3-3-6-6-6-6-6-6-6-6-|-6h7-7-7-3-3-3-3-6-6-6-6-3-3-3-3-|

Repeat A, B, C and D
Repeat A

E
|-----------------------------------|------------------------|
|-----------------------------------|------------------------|
|---------------1-1-2---1-----------|-----------1----4-4~----|
|-2----3----2-----------------3-6-3-|-2----3-----------------|
|-----------------------------------|------------------------|
|-----------------------------------|----------------6-6~----|
|---------------1-1-2---1-----------|-----------1----4-4~----|
|-2----3----2-----------------3-6-3-|-2----3p2h3-----4-4~----|

F                    Play 2 times
|--------------------------------|
|-4-4----7-4----5-4----7-8-8-5-5-|
|-2-2----5-2----3-2----5-6-6-3-3-|
|-2-2----5-2----3-2----5-6-6-3-3-|
  pm...............
G                     Play 6 times
|--------------------------------|
|-4-4-4--7-4-4--5-4-4--7-8-8-5-5-|
|-2-2-2--5-2-2--3-2-2--5-6-6-3-3-|
|-2-2-2--5-2-2--3-2-2--5-6-6-3-3-|
   pm     pm     pm

H (Guitar 1 Left Speaker)                              Play 2 Times
|-----------------------------------------------------------------|
|-6-6-6-6-6-6-6-6-5-5-5-5-5-5-5-5---------------------------------|
|-4-4-4-4-4-4-4-4-3-3-3-3-3-3-3-3-2-2-2-2-2-2-2-2-1-1-1-1-1-1-1-1-|
|-4-4-4-4-4-4-4-4-3-3-3-3-3-3-3-3---------------------------------|
H (Guitar 2 Right Speaker)
|-----------------------------------------------------------------|
|-6-6-6-6-6-6-6-6-5-5-5-5-5-5-5-5---------------------------------|
|-4-4-4-4-4-4-4-4-3-3-3-3-3-3-3-3---------------------------------|
|-4-4-4-4-4-4-4-4-3-3-3-3-3-3-3-3-3-3-3-3-3-3-3-3-2-2-2-2-2-2-2-2-|
  pm.............................

Repeat G (4 times) & H (4 times)
Repeat C, D, A & E
The End

NOTE: This Music has been transcribed on 6 String Guitar, Please note
changes for
7-string Guitar/Bass:
Tuning (Low - High): Bb Eb Ab Db Gb
[B becomes B', F becomes F', G becomes G', H becomes H']

B' (Guitar 1 Left Speaker)                              Play 2 times
|---------------------------------------------------|
|---------------------------------------------------|
|-4--------3--------2-2-2-2-2-2-2-2-1-1-1-1-1-1-1-1-|
|-4--------3----------------------------------------|
|-2--------1----------------------------------------|
B' (Guitar 2 Right Speaker)
|---------------------------------------------------|
|---------------------------------------------------|
|-4--------3----------------------------------------|
|-4--------3--------3-3-3-3-3-3-3-3-2-2-2-2-2-2-2-2-|
|-2--------1----------------------------------------|
F'                    Play 2 times
|--------------------------------|
|--------------------------------|
|-2-2----5-2----3-2----5-6-6-3-3-|
|-2-2----5-2----3-2----5-6-6-3-3-|
|-0-0----3-0----1-0----3-4-4-1-1-|
  pm...............
G'                    Play 6 times
|--------------------------------|
|--------------------------------|
|-2-2-2--5-2-2--3-2-2--5-6-6-3-3-|
|-2-2-2--5-2-2--3-2-2--5-6-6-3-3-|
|-0-0-0--3-0-0--1-0-0--3-4-4-1-1-|
   pm     pm     pm

H' (Guitar 1 Left Speaker)                             Play 2 Times
|-----------------------------------------------------------------|
|-----------------------------------------------------------------|
|-4-4-4-4-4-4-4-4-3-3-3-3-3-3-3-3-2-2-2-2-2-2-2-2-1-1-1-1-1-1-1-1-|
|-4-4-4-4-4-4-4-4-3-3-3-3-3-3-3-3---------------------------------|
|-2-2-2-2-2-2-2-2-1-1-1-1-1-1-1-1---------------------------------|
H' (Guitar 2 Right Speaker)
|-----------------------------------------------------------------|
|-----------------------------------------------------------------|
|-4-4-4-4-4-4-4-4-3-3-3-3-3-3-3-3---------------------------------|
|-4-4-4-4-4-4-4-4-3-3-3-3-3-3-3-3-3-3-3-3-3-3-3-3-2-2-2-2-2-2-2-2-|
|-2-2-2-2-2-2-2-2-1-1-1-1-1-1-1-1---------------------------------|
  pm.............................

The End
Erik
----------------------
erik_heino@hotmail.com 
шаблоны для dle 11.2
https://guitar1st.ru/60564-dawn-of-the-angry.html
Пожалуйста не удаляйте ссылку на источник!

Видео


Аппликатура распознанных аккордов:

Добавить комментарий

Оставить комментарий

Кликните на изображение чтобы обновить код, если он неразборчив