{instrum_title}

Morbid Angel - Immortal Rites Аккорды, Табы


 Tabbed by: THE SANDMAN
Email:ryan5@iamwasted.com
Tuning:Eb

Intro A
|---------------------------------|
|---------------------------------|
|---------------------------------|
|---------5-----------------8--9--|
|---------3---54-----------------|
|-1-2-3-----0-32-0-0-0-0---6--7--|
  * * *     *     * * * *

Intro B
|---------------------------------|
|---------------------------------|
|---------------------------------|
|-9--8-----------------5----------|
|----------------4/5---3----------|
|-7--6---0-0-0-0-2/3-0-----3-2-1--|
         * * * *     *     * * *

Figure A1
|---------------------------------|
|---------------------------------|
|--------------------------10~---|
|---------------------------------|
|----------32--------------8~---|
|-00000000-1-000000000000-------|
  ********     ************

Figure A2
|-----------------------------------|
|-----------------------------------|
|-----------------------10--12--11--|
|-----------------------------------|
|----------32-----------8--10---9--|
|-00000000-1-00000000-------------|
  ********     ********

Figure A3
|-----------------------------------|
|-----------------------------------|
|-----------------------10/1110-9--|
|-----------------------------------|
|----------32-----------8/-9-8-7--|
|-00000000-1-00000000-------------|
  ********     ********

Fill A
|---------------------------------|
|---------------------------------|
|---------------------------------|
|---------------------------------|
|----------32------4--4--4-------|
|-00000000-1-0000-2--2--2--222--| 
шаблоны для dle 11.2
https://guitar1st.ru/60578-immortal-rites.html
Пожалуйста не удаляйте ссылку на источник!

Видео


Аппликатура распознанных аккордов:

Добавить комментарий

Оставить комментарий

Кликните на изображение чтобы обновить код, если он неразборчив