{instrum_title}

Mortification - Hammer Of God Аккорды, Табы


#-----------------------------------------------------------------------------#
#-- File created with Instab - http://www.pconline.com/~smcarey/instab.html --#
#-----------------------------------------------------------------------------#
Author/Artist: Mortification
Title: Hammer Of God
Album: Hammer Of God
Transcribed by: Teigetje
Email: Link77764@hotmail.com
Iam still working at the song, but if you can find any corrections, please e-mai
l them. There some big mistakes in there, if you find them, mail me.
Tuning in D
Words:
Hammer of God
Hammer of God, Crushing the gates of Evil 
Reigning in Glory, Satan bows to The Word
Fire, burning, swords, blazing,
Hate, dying, Glory, Raised.
Heads held high, reflecting God shining
Now the hammer has fallen
Evil lies, on the anvil
Sparks are flying, as the hammer smashing blow.
See the sky, streams of Light breaking forth
Darkness cracked, as the candle shines 
Raised with force, the Hammer will prevail
Christian ways victorious, fill us with Your praise.
We are light, spreading Gospel Truth
You just might listen to our ways
Now be converted, feel the blessed hart
Change forever, eternal life
---|--------------------------------------------------------------------------
-1-|--------------------------------------------------------------------------
---|--------------------------------------------------------------------------
---|--7--5-----5--------------------------------------------------------------
---|--------7-----7--5--------------------------------------------------------
---|--------------------------------------------------------------------------
                                                                              
---|--------------------------------------------------------------------------
-2-|--------------------------------------------------------------------------
---|--------------------------------------------------------------------------
---|--------------------------------------------------------------------------
---|-7-7-7-7--7-7-7-7--7-7-7-7----10-10-10-10-10-------2--0-----0-------------
---|-5-5-5-5--5-5-5-5--5-5-5-5----8--8--8--8--8--------------2----2--0--------
     Hammer  of god   Crushing the gates                                      
---|-------------------------------------------------------|------------------
-3-|-------------------------------------------------------|------------------
---|-------------------------------------------------------|------------------
---|-------------------------------------------------------|------------------
---|--7-7-7-7-8-8-8-8-7-7-7-7--5-5-5-5-7-7-7-7---8-8-8-8---|------------------
---|--5-5-5-5-6-6-6-6-5-5-5-5--3-3-3-3-5-5-5-5---6-6-6-6---|------------------
      Fire            burning ect...                                          
---|----------------------------------------------------------------|---------
---|----------------------------------------------------------------|---------
---|----------------------------------------------------------------|---------
---|-----------------------------------------------5--5-----4--4----|---------
---|--2-2----5-----2--2---7/87-----2--2-----5-----3--3-----2--2----|---------
---|--0-0----3-----0--0---5/65-----0--0-----3----------------------|---------
 p.m. - -          -  -             -  -       heads held high....
шаблоны для dle 11.2
https://guitar1st.ru/28476-hammer-of-god.html
Пожалуйста не удаляйте ссылку на источник!

Видео


Аппликатура распознанных аккордов:

Добавить комментарий

Оставить комментарий

Кликните на изображение чтобы обновить код, если он неразборчив