{instrum_title}

Mr Bungle - Girls Of Porn Аккорды, Табы


girls of porn 
by Mr. bungle 
transcription by Fea 
4/4 
  = accent 
p = pop 
===================================================================== 
intro 
                                    riff 1                       4X 
|---------------------------------|-------------------------------*-| 
|-----------------3-------4-----5-|.--5---------------------------5.| 
|---------------------------------|.------------3---5---4---3------.| 
|---------------------------------|-----3---6-----------------6-3---| 
don't play last time 
===================================================================== 
rythm 1 
|---------------------------------|---------------------------------| 
|---------------------------------|-----------------------3h5---5p3-| 
|---------------------------------|-3---3---5---5---6---6-----------| 
|---------------------------------|---------------------------------| 
                                    <       <       < etc 
|---------------------------------|---------------------------------| 
|---3-3---------------------------|---------------------------------| 
|---------0---0---1---1--/2---x-3-|---3-3---------------------------| 
|---------------------------------|---------0---0---1---1---3---3-1-| 
|---------------------------------|---------------------------------| 
|---------------------------------|-----------------------3h5---5p3-| 
|---------0---0---1---1---2---x-3-|---3-3---5---5---6---6-----------| 
|---1-1---------------------------|---------------------------------| 
|---------------------------------|---------------------------------| 
|---3-3---------------------------|-----------------------3h5---5p3-| 
|---------0---0---1---1---2---x-3-|---3-3---5---5---6---6-----------| 
|---------------------------------|---------------------------------| 
  
|---------2---2---3---3p2h3h5p0---|---------------------------------| 
|---3-3---------------------------|----------------------3h5----5p3-| 
|-------------------------------3-|---3-3---5---5---6---6-----------| 
|---------------------------------|---------------------------------| 
|---------------------------------|---------------------------------| 
|---3-3---------------------------|---------------------------------| 
|---------0---0---1---1---2---x-3-|---3-3---------------------------| 
|---------------------------------|---------0---0---1---1---3---3-1-| 
                   end of rythm 1   rythm 2                      nX 
|---------------------------------|---------------------------------| 
|---------------------------------|.-------------------------------.| 
|---------0---0---1-------2-2-2---|.-------------------------------.| 
|---1-1---------------------------|-0-----------0-0-----------------| 
                                    w/ envelope filter 
===================================================================== 
  rythm 3                                                        3X 
|---------------------------------|---------------------------------| 
|.--------------------------------|--------------------------------.| 
|.0-------0---1---2---------------|--------------------------------.| 
|-----------------------3-----0-0-|---------------------------------| 
  
                                                     end of rythm 3 
|---------------------------------|---------------------------------| 
|---------------------------------|-----------------3-------4-----5-| 
|-0-------0---1---2---------------|---------------------------------| 
|-----------------------3-----0---|-0-------------------------------| 
===================================================================== 
                               3X 
|---------------------------------|---------------------------------| 
|.--5---------------------------5.|---5-----------------------------| 
|.------------3---5---4---3------.|-------------3-------------------| 
|-----3---6-----------------6-3---|-----3---6-------1-1-------------| 
+ rythm 1 
===================================================================== 
2:26 
|-------5---5---------------------|-------5---5---------------------| 
|.--------------------------------|-----------------5-5-3-----------| 
|.3-----------5---6---5---3-------|--)----------------------6---5-6-| 
|-----------------------------3---|-3------------4------------------| 
        p   p                             p   p     etc 
|-----------------------5---5-----|-----------------------5---5-----| 
|---------------------------------|--)------------------------------| 
|-----------------------------5---|-5---5---3--------)--------------| 
|---------8--3-/-8---------------|-------------3---3-----------4---| 
|---------------------------------|---------------------------------| 
|---------------------------------|--------------------------------.| 
|---------------------------------|--------------------------------.| 
|-1-----1-----1---3-----3-----3---|-1-----1-----1---3---3-----------| 
===================================================================== 
2:54 
                               3X 
|---------------------------------|---------------------------------| 
|.-------------------------------.|---------------------------------| 
|.-------------------------------.|---------------------4---5-------| 
|-0-----------0-0-----------------|-0-----------0-0---x---x---------| 
                              16X                                7X 
|---------------------------------|---------------------------------| 
|.-------------------------------.|.-------------------------------.| 
|.-------------------------------.|.-------------------------------.| 
|-0-----------0-0-----------------|-0-0---------0-0---------0-0-----| 
3:59 
|---------------------------------| 
|---------------------------------| 
|---------------------------------| 
|-0-0-----0-0-----0---0---3-4-5---| 
===================================================================== 
                                                                 3X 
|---------------------------------|---------------------------------| 
|.--------------------------------|--------------------------------.| 
|.0-------0---1---2---------------|--------------------------------.| 
|-----------------------3-----0-0-|---------------------------------| 
|---------------------------------|-----------------3p2p0-----------| 
|---------------------------------|-------------------------2p0-0---| 
|-0-------0---1---2---------------|---------------------------------| 
|-----------------------3-----0-0-|---------------------------------| 
                                                                 3X 
|---------------------------------|---------------------------------| 
|.--------------------------------|--------------------------------.| 
|.0-------0---1---2---------------|--------------------------------.| 
|-----------------------3-----0-0-|---------0-------0-------0-------| 
|---------------------------------|-------/-/-----------------------| 
|---------------------------------|-------/-/-------3-------4-----5-| 
|-0-------0---1---2---------------|-------/-/-----------------------| 
|-----------------------3-----0---|-0-----/-/-----------------------| 
===================================================================== 
                               3X 
|---------------------------------|---------------------------------| 
|.--5---------------------------5.|---5-------------3-------4-----5-| 
|.------------3---5---4---3------.|-------------3-------------------| 
|-----3---6-----------------6-3---|-----3---6-----------------------| 
                               3X 
|---------------------------------|---------------------------------| | 
|.--5---------------------------5.|---5-----------------------------|2| 
|.------------3---5---4---3------.|-------------3---4-------5-------|4| 
|-----3---6-----------------6-3---|-----3---6-----------------------| | 
|-----------------| | 
|-3-------4-----5-|4| 
|-----------------|4| 
|-----------------| | 
                               3X 
|---------------------------------|---------------------------------| 
|.--5---------------------------5.|---5-------------3-------4-----5-| 
|.------------3---5---4---3------.|-------------3-------------------| 
|-----3---6-----------------6-3---|-----3---6-----------------------| 
                               3X 
|---------------------------------|---------------------------------| 
|.--5---------------------------5.|---5-----------------------------| 
|.------------3---5---4---3------.|-------------3---4-------5-------| 
|-----3---6-----------------6-3---|-----3---6-----------------------| 
|---------------------------------|---------------------------------| 
|-3-------4-----------------------|---------------------------------| 
|---------------------------------|-5-------------------------------| 
|-----------------4-------5-------|---------------------------------| 
|---------------------------------|---------------------------------| 
|---------------------------------|---------------------------------| 
|-6-------------------------------|-7-------------------------------| 
|---------------------------------|---------------------------------| 
|---------------------------------|---------------------------------|| 
|---------------------------------|---------------------------------|| 
|---------------------------------|---------------------------------|| 
|---------------------------------|-5------------------------------|| 
comments : feanor@libertysurf.fr 
more on http://membres.tripod.fr/Fea 
===================================================================== 
шаблоны для dle 11.2
https://guitar1st.ru/28537-girls-of-porn.html
Пожалуйста не удаляйте ссылку на источник!

Видео


Аппликатура распознанных аккордов:

Добавить комментарий

Оставить комментарий

Кликните на изображение чтобы обновить код, если он неразборчив