{instrum_title}

Мультфильмы - Мальчик Аккорды, Табы


(Drop E string to D) -> EBGDAD
intro:                                
bass: D|----5-----5-----0-----0|
      A|--5-----5-----0-----0--|
      D|5-----5-----0-----0----|
riff:
         E5      E5         C5        C5      A5 G5
    d|-2--2-2--2--2-2---10--10-10--10--10-10---7-5|
    a|-2--2-2--2--2-2---10--10-10--10--10-10---7-5|
    d|-2--2-2--2--2-2---10--10-10--10--10-10---7-5|
Verse 1:
G                            D
Пишет, сладкий, может письма или просто закрывает
F                          C
Лист рукою, сильный ветер, буквы в строчки разгоняет.
G                           C
Лижет липкий клей конверта, загибает, закрывает,
Cm                    D
И в почтовый опускает ящик.
Verse 2:
Разрывает майки, плачет
Слишком больно пишет мальчик,
Руки искусал по локти,
Плохо так, что даже тошно.
Где один и мало света,
Отрывает край конверта,
И стреляют строчек стрелки
Прямо в сердце.
Bridge:
D|------10------10-----9----2--2-2--2--2-2---10--10-10--10--10-10---7-5|
A|---10------10------7------2--2-2--2--2-2---10--10-10--10--10-10---7-5|
E|-8-------8-------7-----7--0--0-0--0--0-0---8---8--8---8---8--8----5-3|
Мальчик пишет письма мальчику,
Это нормальная мужская сказочка.
Просто это любовь,
И это нормально.
solo:
D|-05-4-3--3-2-1----1---1-----05-4-3--3-2-1-1-3-1---1-3-|
A------3---3---3------------------------3-----|
D|-05-4-3--3-2-1----1---1-----05-4-3--3-2-1-|
A------3---3---3------------------|
Bridge, Verse 1.
шаблоны для dle 11.2
https://guitar1st.ru/16790-malchik.html
Пожалуйста не удаляйте ссылку на источник!

Видео


Аппликатура распознанных аккордов:

Добавить комментарий

Оставить комментарий

Кликните на изображение чтобы обновить код, если он неразборчив