{instrum_title}

Нойз МС - 5 Мужчин Аккорды, Табы


5 Мужчин
Как же это всё произошло?
Ведь немало времени прошло…
Я не научился жить один,
Потому что у тебя есть пять мужчин : 

Первый твой мужчина – кик-боксёр,
А второй был порно-режиссёр.
Третий – мастер спорта по сумо,
А четвёртый ездит на «лимо».
Пятый твой мужик – бисексуал,
С третьим и четвёртым переспал,
А второй на плёнку всё снимал
И потом кассету мне продал…

Вот сижу рукою я вожу,
В кадре я тебя не нахожу.
На руке моей уже мозоль
Причиняет страшную боль.
Знаю, онанизм меня убьёт,
Ни одно лекарство не спасёт,
И придётся мне мириться с тем,
Что у тебя целый гарем…

Первый твой мужчина – кик-боксёр,
А второй был порно-режиссёр.
Третий – мастер спорта по сумо,
А четвёртый ездит на «лимо».
Пятый твой мужик – бисексуал,
С третьим и четвёртым переспал,
А второй на плёнку всё снимал
И потом кассету мне продал…

Как же это всё произошло?
Ведь немало времени прошло…
Убирайся, не хуй делать тут,
И у тебя на это пять минут ! 
Уходи, если сможешь,
С поломанными ногами.
Забирай всё, что хочешь,
Поломанными руками.
Выбитыми зубами плюясь по дороге,
Уходи отсюда сука, уноси свои ноги ! 


попробовал подобрать мелодию из мужчин, посмотрите что получилось : 
E-9-9-9-9-9-----------7-7-7-7-7----------5-5-5-5-5-------------------------------
B -----------7-7-5-5------------5-5-3-3------------3-3-5-7--5-3-5-3-7-5-3p5-3p1
________________________________________

(1)---7-7-7-7-7----0-0---2-2--------
(2)--7------------0-----2----------- Дальше так же только вот это : 
(3)----------------------------------

(1)--5-----------3-----------------
(2)--5--3-5------3-1-3-----------------
(3)-----2-4--------0-2---------------

(2)---1-1-1-1-1---3--5-----3-3----1-1-------------
(3)-0------------2--------2------0---------
шаблоны для dle 11.2
https://guitar1st.ru/7108-5-muzhchin.html
Пожалуйста не удаляйте ссылку на источник!

Видео


Аппликатура распознанных аккордов:

Добавить комментарий

Оставить комментарий

Кликните на изображение чтобы обновить код, если он неразборчив