{instrum_title}

Нойз МС - Темная ночь Аккорды, Табы


вот темную ночь подобрал немного начало
------------------------------------------
----1--------------------------------------
------2-----------0------------------------
--------2-----------3------2--2--0--2-----
-0-------------3-------3-------------------
------------1------------------------------
Text:          
Темная ночь только пули свистят по степи
Только ветер гудит в проводах тускло звезды мерцают
В темную ночь ты любимая знаю не спишь
И у детской кроватки тайком ты слезу утираешь
Как я люблю глубину твоих ласковых глаз
Как я хочу к ним прижаться сейчас губами
Темная ночь разделяет любимая нас
И тревожная черная степь пролегла между нами
Верю в тебя в дорогую подругу мою
Эта вера от пули меня темной ночью хранила
Радостно мне я спокоен в смертельном бою
Знаю встретишь с любовью меня что б со мной ни случилось
Смерть не страшна с ней не раз мы встречались в степи
Вот и теперь надо мною она кружится
Ты меня ждешь и у детской кроватки не спишь
И поэтому знаю со мной ничего не случится
________________________________________
"темная ночь" от начало по своему только сделеал
-------------------------------------------------------------------------
--------1----------------------------------------------------------------
------------2---------------------0--1--0-------------------------0----------------
---------------2-------------------------------3-------------0--2-----2---------
--0-----------------0------------------------3-----------3-----------------------
------------------------1----1---------------------1-----------------------
шаблоны для dle 11.2
https://guitar1st.ru/7139-temnaya-noch.html
Пожалуйста не удаляйте ссылку на источник!

Видео


Аппликатура распознанных аккордов:

Добавить комментарий

Оставить комментарий

Кликните на изображение чтобы обновить код, если он неразборчив