{instrum_title}

Нойз МС - Утро Аккорды, Табы


 Вступление x4 (хотя думаю, что двух разов хватает)

E|----0-0-0-0---0-0-0-0---0-0-0-0----0--0--0--0-----0-------0-------|
B|-2/5-5-5-5-5/7-7-7-7-7/8-8-8-8-8/10-10-10-10-10/12-12/13/12-------|
G|-------------------------------0----------------------------------|
D|---------------------0--------------------------------------------|
A|-----------0------------------------------------------------------|
E|-0----------------------------------------------------------------|

Вот аккорды на куплет и припев:

  Hm  A  D  E  
E|--0---0---0---0----------
B|--0---0---0---0----------
G|--4---6---7---9----------
D|--4---7---7---9----------
A|--2---7---5---7----------
E|--x---5---x---x----------

Над перебором потрудитесь сами, у мя слух не оч, так что разобрать не могу... (

А вот текст песни:

Утро
Сон или явь эта любовь -
Определить трудно
Он, а не я делит с тобой
Напополам утро
Сон или явь? как бы? любовь
Предугадать трудно
Он, а не я делит с тобой
Напополам утро

Утро...
Утро...
Утро...

Интро:          
e|-----0-0-0-0-----0-0-0-0-----0-0-0-0------0--0--0--0-||•
b|(4-5)-5-5-5-(5-7)-7-7-7-(7-8)-8-8-8-(8-10)-10-12-13--||•

Аккорды куплет Em G  C A и припев Em G C D  
 
шаблоны для dle 11.2
https://guitar1st.ru/7146-utro.html
Пожалуйста не удаляйте ссылку на источник!

Видео


Аппликатура распознанных аккордов:

Добавить комментарий

Оставить комментарий

Кликните на изображение чтобы обновить код, если он неразборчив