{instrum_title}

Opeth - Windowpane Аккорды, Табы


 F||------------------|-------------------------4-----|
C||------------------|-----------------------4---4-6-|
G||------------------|---------------------6---------|
D||------------------|-------------------------------|

                                             
--------------------------------------4-----|
------------------------------------4---4-6-|
----------------------------------6---------|
--4--2/4--2/4--4--4h2h4--2/4--2-4-----------|

                                                 
|---------------------------------------4------||
|*------------------------------------4---4-6-*||
|*----------------------------------6---------*||
|---4--2/4--2/4--4--4h2h4--2/4--2-4------------||

                                             
--------------------------------------4-----|
------------------------------------4---4-6-|
----------------------------------6---------|
--4--2/4--2/4--4--4h2h4--2/4--2-4-----------|

                                             
--------------------------------------4-----|
------------------------------------4---4-6-|
----------------------------------6---------|
--4--2/4--2/4--4--4h2h4--2/4--2-4-----------|

                                                                        
--------------------------------------4-----||-------------------------|
------------------------------------4---4-6-||*------------------------|
----------------------------------6---------||*--6------4h6--6-6--4----|
--4--2/4--2/4--4--4h2h4--2/4--2-4-----------||-------------------------|

                            3x                         
--------8-------------------||------------------------|
----------8----------------*||------------------------|
--6---6-----6h6--6-6--4----*||--6------4h6--6-6--4----|
----------------------------||------------------------|

                                                     
--------8------------------|------------------------|
----------8----------------|------------------------|
--6---6-----6h6--6-6--4----|--6------4h6--6-6--4----|
---------------------------|------------------------|

                                                                           
--------8------------------||---------------------------------------4-----|
----------8----------------||*------------------------------------4---4-6-|
--6---6-----6h6--6-6--4----||*----------------------------------6---------|
---------------------------||---4--2/4--2/4--4--4h2h4--2/4--2-4-----------|

                                             
--------------------------------------4-----|
------------------------------------4---4-6-|
----------------------------------6---------|
--4--2/4--2/4--4--4h2h4--2/4--2-4-----------|

                                             
--------------------------------------4-----|
------------------------------------4---4-6-|
----------------------------------6---------|
--4--2/4--2/4--4--4h2h4--2/4--2-4-----------|

                                             
--------------------------------------4-----|
------------------------------------4---4-6-|
----------------------------------6---------|
--4--2/4--2/4--4--4h2h4--2/4--2-4-----------|

                                             
--------------------------------------4-----|
------------------------------------4---4-6-|
----------------------------------6---------|
--4--2/4--2/4--4--4h2h4--2/4--2-4-----------|

                                             
--------------------------------------4-----|
------------------------------------4---4-6-|
----------------------------------6---------|
--4--2/4--2/4--4--4h2h4--2/4--2-4-----------|

                                             
--------------------------------------4-----|
------------------------------------4---4-6-|
----------------------------------6---------|
--4--2/4--2/4--4--4h2h4--2/4--2-4-----------|

                                                                      
--------------------------------------4-----|------------------------|
------------------------------------4---4-6-|------------------------|
----------------------------------6---------|--6------4h6--6-6--4----|
--4--2/4--2/4--4--4h2h4--2/4--2-4-----------|------------------------|

                                                     
--------8------------------|------------------------|
----------8----------------|------------------------|
--6---6-----6h6--6-6--4----|--6------4h6--6-6--4----|
---------------------------|------------------------|

                                                     
--------8------------------|------------------------|
----------8----------------|------------------------|
--6---6-----6h6--6-6--4----|--6------4h6--6-6--4----|
---------------------------|------------------------|

                                                     
--------8------------------|------------------------|
----------8----------------|------------------------|
--6---6-----6h6--6-6--4----|--6------4h6--6-6--4----|
---------------------------|------------------------|

                                                     
--------8------------------|------------------------|
----------8----------------|------------------------|
--6---6-----6h6--6-6--4----|--6------4h6--6-6--4----|
---------------------------|------------------------|

                                                     
--------8------------------|------------------------|
----------8----------------|------------------------|
--6---6-----6h6--6-6--4----|--6------4h6--6-6--4----|
---------------------------|------------------------|

                                                        
--------8------------------||--------------------------|
----------8----------------||*-------------------------|
--6---6-----6h6--6-6--4----||*--2------4---4--4-4--5-4-|
---------------------------||--------------------------|

                                                                               
-------------------------||------------------------|--------------------------|
------------------------*||------------------------|--------------------------|
--2------4h5--5--5-5----*||--2------4h5--5--5-5----|--3-----------------------|
-------------------------||------------------------|------2-3-4-4---4--4-4----|

                                                                              
--------------------------|-------------------------|------------------------|
--------------------------|-------------------------|------------------------|
--3-----------------------|--2------4---4--4-4--5-4-|--2------4h5--5--5-5----|
------2-3-4-4---4--4-4----|-------------------------|------------------------|

                                                                              
-------------------------|-------------------------|-------------------------|
-------------------------|-------------------------|-------------------------|
--2------4---4--4-4--5-4-|--2------4h5--5--5-5--5--|--2------4---4--4-4--5-4-|
-------------------------|-------------------------|-------------------------|

                                                     
-------------------------|--------------------------|
-------------------------|--------------------------|
--2------4h5--5--5-5--2--|--3-----------------------|
-------------------------|------2-3-4-4---4--4-4----|

                                                                                
---------------------------|-------------------------|-------------------------|
---------------------------|-------------------------|-------------------------|
--3------------------------|--2------4---4--4-4--5-4-|--2------4h5--5--5-5--5--|
------2-3-4-4---4--4-4--4--|-------------------------|-------------------------|

                                                        
|--------------------------|--------------------------||
|*-------------------------|-------------------------*||
|*--2------4---4--4-4--5-4-|--2------4h5--5--5-5--2--*||
|--------------------------|--------------------------||

                                                       
--------------------------|---------------------------|
--------------------------|---------------------------|
--3-----------------------|--3------------------------|
------2-3-4-4---4--4-4----|------2-3-4-4---4--4-4--5--|

                                                                        
-------------------------|-------------------------|-------------------|
-------------------------|-------------------------|-------------------|
--2------4---4--4-4--5-4-|--2------4h5--5--5-5--5--|--2----------------|
-------------------------|-------------------------|-------------------|

                                                         
------------------|------------------|------------------|
------------------|------------------|------------------|
------------------|------------------|------------------|
------------------|------------------|------------------|

                                                    2x                         
|-------------------------|---------------------2---||------------------------|
|*--------------4---3-0---|----------0---2---4-----*||--------------4---3-0---|
|*------5---6-------------|--4---4-----------------*||------5---6-------------|
|---4---------------------|-------------------------||--4---------------------|

                                                                           
---------------------2--|------------------------|---------------------2--|
----------0---2---4-----|--------------4---3-0---|----------0---2---4-----|
--4---4-----------------|------5---6-------------|--4---4-----------------|
------------------------|--4---------------------|------------------------|

                                                                           
------------------------|---------------------2--|------------------------|
--------------4---3-0---|----------0---2---4-----|--------------4---3-0---|
------5---6-------------|--4---4-----------------|------5---6-------------|
--4---------------------|------------------------|--4---------------------|

                                                                           
---------------------2--|------------------------|---------------------2--|
----------0---2---4-----|--------------4---3-0---|----------0---2---4-----|
--4---4-----------------|------5---6-------------|--4---4-----------------|
------------------------|--4---------------------|------------------------|

                                                            
|-----------------------------|----------------------------|
|*----------------------------|----------------------------|
|*---------------7------------|---------------7------------|
|---4-------------------------|--4-------------------------|

                                                              
-----------------------------|------------------------------||
---------1-------------------|-----------------------------*||
--4-------------2------------|--4------2------2------------*||
-----------------------------|------------------------------||

                                                            
-----------------------------|-----------------------------|
-----------------------------|-----------------------------|
--2------4------0------------|--2------0------0------------|
-----------------------------|-----------------------------|

                                                          
----------------------------|----------------------------|
----------------------------|----------------------------|
---------------7------------|---------------7------------|
--4-------------------------|--4-------------------------|

                                                            
-----------------------------|-----------------------------|
---------1-------------------|-----------------------------|
--4-------------2------------|--4------2------2------------|
-----------------------------|-----------------------------|

                                                          
----------------------------|----------------------------|
----------------------------|----------------------------|
---------------7------------|---------------7------------|
--4-------------------------|--4-------------------------|

                                                                               
-----------------------------|-----------------------------|------------------|
---------1-------------------|-----------------------------|------------------|
--4-------------2------------|--4------2------2------------|------------------|
-----------------------------|-----------------------------|------------------|

                                                                
------------------|--------------------------------------4-----|
------------------|------------------------------------4---4-6-|
------------------|----------------------------------6---------|
------------------|--4--2/4--2/4--4--4h2h4--2/4--2-4-----------|

                                             
--------------------------------------4-----|
------------------------------------4---4-6-|
----------------------------------6---------|
--4--2/4--2/4--4--4h2h4--2/4--2-4-----------|

                                             
--------------------------------------4-----|
------------------------------------4---4-6-|
----------------------------------6---------|
--4--2/4--2/4--4--4h2h4--2/4--2-4-----------|

                                             
--------------------------------------4-----|
------------------------------------4---4-6-|
----------------------------------6---------|
--4--2/4--2/4--4--4h2h4--2/4--2-4-----------|

                                             
--------------------------------------4-----|
------------------------------------4---4-6-|
----------------------------------6---------|
--4--2/4--2/4--4--4h2h4--2/4--2-4-----------|

                                             
--------------------------------------4-----|
------------------------------------4---4-6-|
----------------------------------6---------|
--4--2/4--2/4--4--4h2h4--2/4--2-4-----------|

                                             
--------------------------------------4-----|
------------------------------------4---4-6-|
----------------------------------6---------|
--4--2/4--2/4--4--4h2h4--2/4--2-4-----------|

                                                                        
--------------------------------------4-----||-------------------------|
------------------------------------4---4-6-||*------------------------|
----------------------------------6---------||*--6------4h6--6-6--4----|
--4--2/4--2/4--4--4h2h4--2/4--2-4-----------||-------------------------|

                            3x                         
--------8-------------------||------------------------|
----------8----------------*||------------------------|
--6---6-----6h6--6-6--4----*||--6------4h6--6-6--4----|
----------------------------||------------------------|

                                                     
--------8------------------|------------------------|
----------8----------------|------------------------|
--6---6-----6h6--6-6--4----|--6------4h6--6-6--4----|
---------------------------|------------------------|

                                                     
--------8------------------|------------------------|
----------8----------------|------------------------|
--6---6-----6h6--6-6--4----|--6------4h6--6-6--4----|
---------------------------|------------------------|

                                                     
--------8------------------|------------------------|
----------8----------------|------------------------|
--6---6-----6h6--6-6--4----|--6------4h6--6-6--4----|
---------------------------|------------------------|

                                                     
--------8------------------|------------------------|
----------8----------------|------------------------|
--6---6-----6h6--6-6--4----|--6------4h6--6-6--4----|
---------------------------|------------------------|

                                                                             
--------8------------------|------------------------|--------8--------------|
----------8----------------|------------------------|----------8------------|
--6---6-----6h6--6-6--4----|--6------4h6--6-6--4----|--6---6-----6----------|
---------------------------|------------------------|-----------------------|

                                       
------------------|------------------||
------------------|------------------||
------------------|------------------||
------------------|------------------|| 
шаблоны для dle 11.2
https://guitar1st.ru/62714-windowpane.html
Пожалуйста не удаляйте ссылку на источник!

Видео


Аппликатура распознанных аккордов:

Добавить комментарий

Оставить комментарий

Кликните на изображение чтобы обновить код, если он неразборчив