{instrum_title}

Прикольные песни - Армия (А у нас есть в отр-я-де кап-рал ) Аккорды, Табы


                        Армия
E||-0--2---3----2-------0-|---5---0----2--------------|   | Э
B||-----------------------|-2-------------------------|<--| т
G||-----------------------|---------------------------|   | о
           Aм                        D                    |
    А  у  нас  есть  в  отр-я-де  кап-рал                 | и
                                                          | г
E||-----------0--2--0-----|---------------------------|   | р
B||-0--2--3-------------0-|---------------------------|<--| а
G||-----------------------|-1--2----------------------|   | е
        Em                      Am                        | т
    У  не-го  о-ху-енн-ый  а-нал                          | с
                                                          | я
E||------------0----------|5---0--2-------------------|   |
B||-0---2---3------3--2---|---------------------------|<--| в
G||-----------------------|---------------------------|   | е
    Am                    D                               | з
   Дев-ки  люб-ят  ег-о  бля  за-то                       | д
                                                          | е
E||-----------------------|---------------------------|   |  
B||----0--2--3--0---1----2|---------------------------|<--| 
G||2----------------------|----1---2------------------|              
       Em                      Am                                     
   А  бы-ки  е-го  дрю-чат  в  оч-ко
   
   Тут пришёл к нам в отряд генерал
  
   И на всех он тут бля накончал
     
   И капрал на колени упал
   И во всю что есть дурь отсосал
Припев:
E||--0--2-3---2-3---5---|-|-|-0-2-3---2--3---5----0-------|
B||---------------------|-|-|------------------------2--3-|
G||---------------------|-|-|-----------------------------|
       F            D            F               D    Am       
    Командир то он бля  .....Командир то он бля корабля
  
   Вот и кок наш пришёл подрочить
   Взял точилку и хуй стал точить
   Стружка падала прямо в гарнир
   Тут пришёл бляха наш Командир
шаблоны для dle 11.2
https://guitar1st.ru/5095-armiya-a-u-nas-est-v-otr-ya-de-kap-ral-.html
Пожалуйста не удаляйте ссылку на источник!

Видео


Аппликатура распознанных аккордов:

Добавить комментарий

Оставить комментарий

Кликните на изображение чтобы обновить код, если он неразборчив