{instrum_title}

Прикольные песни - Про собачку Аккорды, Табы


e|-------------------------------------------------------------------------|
b|----1-----1-------0-----0-------3-----3-------1-----1--------------------|
g|-------0-----0-------0-----0-------0-----0-------0-----0-----------------|
d|----2-----2-------0-----0-------3-----3-------2-----2--------------------|
a|-------------------------------------------------------------------------|
e|-------------------------------------------------------------------------|
      Во са-ду ли    в ого-роде     бе-гала со-    ба - чка
e|----0-----0-------1-----1-----------------------------1-----1------------|
b|--------------------------------0-----0-------1--1----0-----0------------|
g|-------0-----0-------0-----0-------0-----0---------------0-----0---------|
d|------------------0-----0------------------------------------------------|
a|----3-----3-----------------------------------3—-3-----------------------|
e|--------------------------------3-----3----------------------------------|
     Хвост подняла  на фу няла    вот и  вся   задачка  По-том лишь пук-
               
e|----1-----1-------0-----0-------1-----1-------2-----2-------3-----3------|
b|----3-----3-------2-----2-------3-----3-------1-----1-------0-----0------|
g|-------0-----0-------0-----0-------0-----0-------------------------------|
d|-------------------------------------------------0-----0-------0-----0---|
a|-------------------------------------------------------------------------|
e|-------------------------------------------------------------------------|
     нула слегка    убила ста-    рого  бы-ка   не поднима-   я хвости-ка  
e|----2-----2-------3--3---------------------------------------------------|
b|----1-----1-------0--0---------------------------------------------------|
g|------------------0--0---------------------------------------------------|
d|-------0-----0-----------------------------------------------------------|
a|-------------------------------------------------------------------------|
e|-------------------------------------------------------------------------|
    Не поднимая   хвостика
шаблоны для dle 11.2
https://guitar1st.ru/5209-pro-sobachku.html
Пожалуйста не удаляйте ссылку на источник!

Видео


Аппликатура распознанных аккордов:

Добавить комментарий

Оставить комментарий

Кликните на изображение чтобы обновить код, если он неразборчив