{instrum_title}

Прикольные песни - Развлечения в Испании Аккорды, Табы


                     Бас:
e|----------------------------------------------------------|
b|----------------------------------------------------------|
g|----------------------------------------------------------|
D|----------------------------------------------------------|
A|-------------3-3-3-3-3-3----------------------------------|
E|-0-0-0-0-0-0-------------0-0-0-0-0-0-2-2-2-2-2-2----------|
e|-------------------------------------7-5------------------|
b|-------------------------------5-5-4-----4---4-5-7-8-7-5--|
g|-5-4-9b---5-4-9---5-4-9-5-4-9-----------------------------|
D|----------------------------------------------------------|
A|----------------------------------------------------------|
E|----------------------------------------------------------|
e|----------------------------------------------------------|
b|----------------------------------------------------------|
g|-7-5-4----------------------------------------------------|
D|---------5---2--------------------------------------------|
A|----------------------------------------------------------|
E|-------------0--------------------------------------------|
Мне с девчёнками, не везло.
Был я сука, холостой.
Купил билет, на самолёт.
Ростов-Барселона,и улетел.
В Испанию.
По испански, я не врубал.
По англиский, говорил.
Там прожил я,1 месяц.
И мужиком стал.
На меня, целая стая.
Испанских тёлок, налетела.
А через, 2 года.
У меня, были дети.
И целый гарем.
Там были девки, из Порто Рико.
И Испании.
Я вообще там, наслаждался.
Были отсосы, и миньеты.
Всем рвал жопы, своим колом.
Получая кайф.
Но а особенно, пизды.
В рот всех трахал, и куда хотел.
Был большой рай, кайф  
Стану в круг, в рот всем дам.
А потом стану их всех ебать  
Ах-ах-ах-ах-ах-ах-ах-ах  
Кайф-кайф-кайф-кайф-кайф-кайф-кайф-кайф    
И от кайфа сдох.(от избытка чувств)
шаблоны для dle 11.2
https://guitar1st.ru/5216-razvlecheniya-v-ispanii.html
Пожалуйста не удаляйте ссылку на источник!

Видео


Аппликатура распознанных аккордов:

Добавить комментарий

Оставить комментарий

Кликните на изображение чтобы обновить код, если он неразборчив