{instrum_title}

Прикольные песни - Ту-104 Аккорды, Табы


Вобщем мой папа пока не угодил в тюрьму играл на гитаре, фортепъяно,
контробас, и бас гитаре. Он с друзьями тогда прикалывался записывали
они всякие прикольные песни и вот одна которую я запомнил:
мелодия похоронного марша(в общем это он и есть):
-0--0--0-0--3-2-2--0-0--0-0---0--0--0-0--3-2-2--0-0--0-0---0--0--0-0--0--0--0-0
-0--0--0-0--0-0-0--0-0--0-0---0--0--0-0--0-0-0--0-0--0-0---0--0--0-0--0--0--0-0
-------------------------------------------------------------------------------
-------------------------------------------------------------------------------
-------------------------------------------------------------------------------
-0--0--0-0--0-0-0--0-0--0-0---0--0--0-0--0-0-0--0-0--0-0---0--0--0-0--0--0--0-0
-0--0--0-0--3-2-2--0-0--0-0
-0--0--0-0--0-0-0--0-0--0-0
---------------------------
---------------------------
---------------------------
-0--0--0-0--0-0-0--0-0--0-0
Слова:
Ту-104 самый лучьший самолёт
Ту-104 нас на небо унесёт
Ту-104
Ту-104
Ту-104 самый лучший самолёт
шаблоны для dle 11.2
https://guitar1st.ru/5241-tu-104.html
Пожалуйста не удаляйте ссылку на источник!

Видео


Аппликатура распознанных аккордов:

Добавить комментарий

Оставить комментарий

Кликните на изображение чтобы обновить код, если он неразборчив