{instrum_title}

Прикольные песни - Хуй Аккорды, Табы


     Играется этим перебором на протяжении всей песни 
     1 --------------------------------------
     2 --------------------------------------
     3 ------0-------2-------0-------0-------
     4 ----2---2---2---2---2---2---0---0-----
     5 --2-------3-------0-------2-----------
     6 --------------------------------------
     
 1   Спи мой хуй красногаловый,
     Баюшки баю
     Я тебе семивершковый
     Песинку спою
 2   Йоб ты ж здесь больших и малых,
     Йоб ты молодых
     Городских провинцыальных,
     Толстых и худых
 
 ПРИПЕВ (играется без остановки сразу после второго куплета)
     
     Вот это хуй                   /
     Вот это да                    /  2 раза
     А ну давай давай давай давай  /
     Его сюда                      /
 3   А недавно что ж ты зделал,
     Йобаный ты бес 
     Ты моей соседке Клаве
     В попаньку залез  
 4   Две недели кровью сала
     В калыбель мою
     Три недели вновь вертелась
     На моем хую  
 ПРИПЕВ
 5   Я умру тебя отрежут,
     Поместят в музей
     Под стекло тебя положат,
     На людей глазей
 6   Подойдет к тебе актриса
     И возьмет губой 
     И возникнит провинцыалистка -
     Ах какой большой  
 ПРИПЕВ
 
    Эту песню можно играть и другим перебором 
        Am
    1 ----------------------------------------
    2 ------1-------1-------0-------0---------
    3 ----2---2---2---2---2---2---0---0-------
    4 --2-------3-------0-------2-------------
    5 ----------------------------------------
    6 ----------------------------------------
шаблоны для dle 11.2
https://guitar1st.ru/5252-huy.html
Пожалуйста не удаляйте ссылку на источник!

Видео


Аппликатура распознанных аккордов:

Добавить комментарий

Оставить комментарий

Кликните на изображение чтобы обновить код, если он неразборчив