{instrum_title}

Red Elvises - Stewardess In Red Аккорды, Табы


 #----------------------------------PLEASE NOTE---------------------------------#
#This file is the author's own work and represents their interpretation of the #
#song. You may only use this file for private study, scholarship, or research. #
#------------------------------------------------------------------------------#
Artist: the Red Elvises
album: I wanna see you belly dance
somg: Stewardess
scales:
Tabbed by: Misterperosn
Date: Feb. 4, 2005

Tab symbols
--2(3)-----------One-half bend; bend up one half-step (one fret)
--(3)2-----------Pre bend and releas, one half-step.
Chords:
F (133211)
Bb (x1333x)
C (x3555x)
D (x5777x)
G (355433)
A (xo222o) or sometimes (577655)


Riff # 1 (intro) can also be played over chorus
D A C G Bb A F A
e|-----------6-5------5-6-5-3-----------------------------------8(10)8-6---------|
b|----6-3-6-------------------6-3-----6-6-3-6---6-6-3-6--4--3------------8-6-----|
g|--5------------------------------------------------------------------------7-6-|
d|-------------------------------------------------------------------------------|
a|-------------------------------------------------------------------------------|
e|-------------------------------------------------------------------------------|

D A C G Bb A F Bb C
e|-----------6-5------5-6-5-3-------------------------------------------|
b|----6-3-6-------------------6-3-----6-6-3-6---6-6-3-6--4--3---3-3--5--|
g|--5-----------------------------------------------------------3-3--5--|
d|--------------------------------------------------------------3-3--5--|
a|--------------------------------------------------------------1-1--3--|
e|----------------------------------------------------------------------|

1st Verse:
F F Bb C F F Bb C
Yesterday I got a crazy phone call
F F Bb C F F Bb C
never knew I'd fly so far away
F F Bb C F F Bb C
now they want the band to play in Hongkong
D C Bb F Bb C
I can't believe its happening today

F F Bb C F F Bb C
I know why my baby often left me
F F Bb C F F Bb C
'couse all I did was rock all day
F F Bb C F F Bb C
she took my money and called 900 numbers
D C Bb F Bb C
left me with bill I have to pay

Chorus:
D A C G Bb A (open) F A (barr)
Oh flying all night long shes the only one on a red-hot flight from LA to Hongkong
D A C G Bb A (open) F Bb C
Oh Stewardess in red stop messing my head, can you fix another drink I'm sad

1nd verse:
I have a feeling this flight will last forever
I have a feeling of falling in love with her
you just fool in red say I won't ever
Bring another drink and smile some more

Ending: Bb C F
шаблоны для dle 11.2
https://guitar1st.ru/68163-stewardess-in-red.html
Пожалуйста не удаляйте ссылку на источник!

Видео


Аппликатура распознанных аккордов:

Добавить комментарий

Оставить комментарий

Кликните на изображение чтобы обновить код, если он неразборчив