{instrum_title}

Rise Against - Black Masks And Gasoline Аккорды, Табы


Страницы: 1 2 3
Artist: Rise Against (http://www.riseagainst.com/home/home.asp)
(Tim McIlrath: Vocals & Guitar)
(Todd Mohney: Guitar & Backing Vocals)
(Joe Principe: Bass Guitar & Backing Vocals)
(Brandon Barnes: Drums & Backing Vocals)
(U.S.A., Canada)
Song: Black Masks & Gasoline
Album: Revolutions Per Minute
Tabbed by: Galen (a.k.a daman) (galen110@hotmail.com)	
Tuning: Standard
To use this tab at 100% efficiency, I suggest you have the song playing while
you play it, cuz you really need to hear the song to get the timing for the notes
right. Tabbing this song, between me and aaron, along with tweaking the tabs
along the way, I'd say it took about four months to get it this close.  All the
lines are pretty much in the same order they are in the actual song, but once
again, hearing the song itself is plenty of help. Enjoy!
| /  slide to next note

Intro  x2
G|--------------|
D|--------------|
A|0-0-2--2-2-4--|
E|-0------2---4-|
Guitar and vocals for a bit
Verse  x2
G|------------------------------------|
D|---------22222222----------44444444-|
A|------------------22222222----------|
E|44444444----------------------------|
Pre-chorus (listen to song for timing)
G|------------------------|
D|-2-2-2-222--------------|
A|-----------2------------|
E|-------------222-22-233-|
Chorus pt 1
G|--------------------------------------------|
D|---------44444444-22222222-1-2-4------------|
A|--------------------------------------------|
E|44444444------------------------------------|
Chorus pt 2
G|--------------------------------------------|
D|---------44444444-22222222-1----------------|
A|-----------------------------4-2------------|
E|66666666------------------------------------|
Chorus pt 3
G|--------------------------------------------|
D|---------44444444-22222222-1-2-4------------|
A|--------------------------------------------|
E|44444444------------------------------------|
Chorus pt 4
G|--------------------------------------------|
D|---------44444444-22222222------------------|
A|--------------------------------------------|
E|44444444-------------------000000-2222-3333-|
Verse  x1
G|------------------------------------|
D|---------22222222----------44444444-|
A|------------------22222222----------|
E|44444444----------------------------|

G|----------------------------------------------------------------------|
D|-88-99-1111/1313-1111/99-88-99-88/66/55/13131313-1414-13-11111111/2---|
A|----------------------------------------------------------------------|
E|----------------------------------------------------------------------|
Pre-chorus (listen to song for timing)
G|------------------------|
D|-2-2-2-222--------------|
A|-----------2------------|
E|-------------222-22-233-|
Chorus pt 1
G|--------------------------------------------|
D|---------44444444-22222222-1-2-4------------|
A|--------------------------------------------|
E|44444444------------------------------------|
Chorus pt 2
G|--------------------------------------------|
D|---------44444444-22222222-1----------------|
A|-----------------------------4-2------------|
E|66666666------------------------------------|
Chorus pt 3
G|--------------------------------------------|
D|---------44444444-22222222-1-2-4------------|
A|--------------------------------------------|
E|44444444------------------------------------|
Chorus pt 4
G|--------------------------------------------|
D|---------44444444-22222222------------------|
A|--------------------------------------------|
E|44444444-------------------000000-2222-3333-|
Bridge pt. 1
G|---------------------------------------|
D|---------------------------------------|
A|-------------------------------2-4-----|
E|4444------4444------4444------4-4------|
Bridge pt. 2
G|---------------------------------------|
D|---------------------------------------|
A|-------------------------------222-444-|
E|4444------4444------4444---------------|
Bridge pt. 1
G|---------------------------------------|
D|---------------------------------------|
A|-------------------------------2-4-----|
E|4444------4444------4444------4-4------|
Bridge pt. 2
G|---------------------------------------|
D|---------------------------------------|
A|-------------------------------222-444-|
E|4444------4444------4444---------------|
Bass Solo  x1
G|------------------------------------------------------|
D|-------------------------------1233333----------------|
A|---------467-77777-7-6-4/22222------------------------|
E|44444444----------------------------------------------|
Bass Solo into verse x1
G|------------------------------------------------------|
D|-------------------------------1233333----------------|
A|---------467-77777-7-6-4/22222------------------------|
E|44444444----------------------------------------------|
Verse  x1
G|------------------------------------|
D|---------22222222----------44444444-|
A|------------------22222222----------|
E|44444444----------------------------|
Pre-chorus (listen to song for timing)
G|------------------------|
D|-2-2-2-222--------------|
A|-----------2------------|
E|-------------222-22-233-|
Chorus pt 1
G|--------------------------------------------|
D|---------44444444-22222222-1-2-4------------|
A|--------------------------------------------|
E|44444444------------------------------------|
Chorus pt 2
G|--------------------------------------------|
D|---------44444444-22222222-1----------------|
A|-----------------------------4-2------------|
E|66666666------------------------------------|
Chorus pt 3
G|--------------------------------------------|
D|---------44444444-22222222-1-2-4------------|
A|--------------------------------------------|
E|44444444------------------------------------|
Chorus pt 4
G|--------------------------------------------|
D|---------44444444-22222222------------------|
A|--------------------------------------------|
E|44444444-------------------000000-2222-3333-|
End on
G|-------------------------|
D|-------------------------|
A|-------------------------|
E|--4----------------------|

Despite how long and hard I've looked, I've never found a real good and true bass
tab for this song, and this is the product of me and friend working hard to decipher
this song. Hope you enjoy, and if you have any grievances about it, feel free to
complain or build off this to make corrections.
Gimme some feedback if you want to (galen110@hotmail.com)

шаблоны для dle 11.2

https://guitar1st.ru/26994-black-masks-and-gasoline.html
Пожалуйста не удаляйте ссылку на источник!

Видео


Аппликатура распознанных аккордов:

Добавить комментарий

Оставить комментарий

Кликните на изображение чтобы обновить код, если он неразборчив